  0
SECTION
  2
HEADER
  9
$EXTMIN
 10
0
 20
0
  9
$EXTMAX
 10
168000
 20
118800
  0
ENDSEC
  0
SECTION
  2
TABLES
  0
TABLE
  2
LTYPE
 70
     9
  0
LTYPE
  2
CONTINUOUS
 70
    64
  3
実線
 72
    65
 73
     0
 40
0.0
  0
LTYPE
  2
DASHED1
 70
    64
  3
--  --  --  --  --  --  --  --  
 72
    65
 73
     2
 40
2.5
 49
1.25
 49
-1.25
  0
LTYPE
  2
DASHED2
 70
    64
  3
----    ----    ----    ----    
 72
    65
 73
     2
 40
5.0
 49
2.5
 49
-2.5
  0
LTYPE
  2
DASHED3
 70
    64
  3
------  ------  ------  ------  
 72
    65
 73
     2
 40
5.0
 49
3.75
 49
-1.25
  0
LTYPE
  2
CENTER1
 70
    64
  3
----- - ----- - ----- - ----- - 
 72
    65
 73
     4
 40
10.0
 49
6.25
 49
-1.25
 49
1.25
 49
-1.25
  0
LTYPE
  2
CENTER2
 70
    64
  3
----------  --  ----------  --  
 72
    65
 73
     4
 40
20.0
 49
12.5
 49
-2.5
 49
2.5
 49
-2.5
  0
LTYPE
  2
PHANTOM1
 70
    64
  3
--- - - --- - - --- - - --- - - 
 72
    65
 73
     6
 40
10.0
 49
3.25
 49
-1.25
 49
1.25
 49
-1.25
 49
1.25
 49
-1.25
  0
LTYPE
  2
PHANTOM2
 70
    64
  3
--------  -  -  --------  -  -  
 72
    65
 73
     6
 40
20.0
 49
10.0
 49
-2.5
 49
1.25
 49
-2.5
 49
1.25
 49
-2.5
  0
LTYPE
  2
DOT
 70
    64
  3
-   -   -   -   -   -   -   -   
 72
    65
 73
     2
 40
2.5
 49
0.625
 49
-1.875
  0
ENDTAB
  0
TABLE
  2
STYLE
 70
    1
  0
STYLE
  2
STANDARD
 70
    64
 40
0.0
 41
1.0
 42
0.0
 50
0.0
 71
     0
  3
TXT
  4
BIGFONT
  0
ENDTAB
  0
TABLE
  2
LAYER
 70
    2
  0
LAYER
  2
0-0
 70
   64
 62
    7
  6
CONTINUOUS
  0
LAYER
  2
ADD_LINE
 70
   64
 62
    7
  6
CONTINUOUS
  0
ENDTAB
  0
ENDSEC
  0
SECTION
  2
ENTITIES
  0
LINE
  8
0-0
  6
CONTINUOUS
 62
    7
 10
78790.141
 20
77577.864
 11
83261.536
 21
81027.709
  0
LINE
  8
0-0
  6
CONTINUOUS
 62
    7
 10
83261.536
 20
81027.709
 11
86703.009
 21
83472.751
  0
LINE
  8
0-0
  6
CONTINUOUS
 62
    7
 10
86703.009
 20
83472.751
 11
92815.613
 21
87818.556
  0
LINE
  8
0-0
  6
CONTINUOUS
 62
    7
 10
92815.613
 20
87818.556
 11
95562.086
 21
89811.427
  0
LINE
  8
0-0
  6
CONTINUOUS
 62
    7
 10
95562.086
 20
89811.427
 11
98258.339
 21
91569.843
  0
LINE
  8
0-0
  6
CONTINUOUS
 62
    7
 10
98258.339
 20
91569.843
 11
99891.155
 21
92616.523
  0
LINE
  8
0-0
  6
CONTINUOUS
 62
    7
 10
99891.155
 20
92616.523
 11
101833.78
 21
93813.924
  0
LINE
  8
0-0
  6
CONTINUOUS
 62
    7
 10
101833.78
 20
93813.924
 11
102779.97
 21
94441.936
  0
LINE
  8
0-0
  6
CONTINUOUS
 62
    7
 10
102779.97
 20
94441.936
 11
102872.09
 21
94768.497
  0
LINE
  8
0-0
  6
CONTINUOUS
 62
    7
 10
102872.09
 20
94768.497
 11
103073.04
 21
94944.338
  0
LINE
  8
0-0
  6
CONTINUOUS
 62
    7
 10
103073.04
 20
94944.338
 11
103282.38
 21
95002.951
  0
LINE
  8
0-0
  6
CONTINUOUS
 62
    7
 10
103282.38
 20
95002.951
 11
103424.73
 21
95036.445
  0
LINE
  8
0-0
  6
CONTINUOUS
 62
    7
 10
103424.73
 20
95036.445
 11
103717.79
 21
95036.445
  0
LINE
  8
0-0
  6
CONTINUOUS
 62
    7
 10
103717.79
 20
95036.445
 11
103843.41
 21
94969.458
  0
LINE
  8
0-0
  6
CONTINUOUS
 62
    7
 10
103843.41
 20
94969.458
 11
103969.01
 21
94751.751
  0
LINE
  8
0-0
  6
CONTINUOUS
 62
    7
 10
103969.01
 20
94751.751
 11
103985.75
 21
94441.936
  0
LINE
  8
0-0
  6
CONTINUOUS
 62
    7
 10
103985.75
 20
94441.936
 11
103843.41
 21
94065.135
  0
LINE
  8
0-0
  6
CONTINUOUS
 62
    7
 10
103843.41
 20
94065.135
 11
103516.83
 21
93964.645
  0
LINE
  8
0-0
  6
CONTINUOUS
 62
    7
 10
103516.83
 20
93964.645
 11
103282.38
 21
93964.645
  0
LINE
  8
0-0
  6
CONTINUOUS
 62
    7
 10
103282.38
 20
93964.645
 11
99581.33
 21
90958.587
  0
LINE
  8
0-0
  6
CONTINUOUS
 62
    7
 10
99581.33
 20
90958.587
 11
97178.165
 21
89074.571
  0
LINE
  8
0-0
  6
CONTINUOUS
 62
    7
 10
97178.165
 20
89074.571
 11
93803.68
 21
86629.529
  0
LINE
  8
0-0
  6
CONTINUOUS
 62
    7
 10
93803.68
 20
86629.529
 11
85915.903
 21
80977.469
  0
LINE
  8
0-0
  6
CONTINUOUS
 62
    7
 10
85915.903
 20
80977.469
 11
82415.812
 21
78691.521
  0
LINE
  8
0-0
  6
CONTINUOUS
 62
    7
 10
82415.812
 20
78691.521
 11
78790.141
 21
76480.943
  0
LINE
  8
0-0
  6
CONTINUOUS
 62
    7
 10
83387.137
 20
79487.001
 11
82809.375
 21
80349.467
  0
LINE
  8
0-0
  6
CONTINUOUS
 62
    7
 10
82809.375
 20
80349.467
 11
85723.325
 21
82484.684
  0
LINE
  8
0-0
  6
CONTINUOUS
 62
    7
 10
85723.325
 20
82484.684
 11
90244.981
 21
85666.582
  0
LINE
  8
0-0
  6
CONTINUOUS
 62
    7
 10
90244.981
 20
85666.582
 11
92690.013
 21
87425.008
  0
LINE
  8
0-0
  6
CONTINUOUS
 62
    7
 10
92690.013
 20
87425.008
 11
96583.656
 21
90171.481
  0
LINE
  8
0-0
  6
CONTINUOUS
 62
    7
 10
96583.656
 20
90171.481
 11
99028.678
 21
91821.054
  0
LINE
  8
0-0
  6
CONTINUOUS
 62
    7
 10
99028.678
 20
91821.054
 11
99547.837
 21
91209.788
  0
LINE
  8
0-0
  6
CONTINUOUS
 62
    7
 10
99547.837
 20
91209.788
 11
96784.617
 21
89057.824
  0
LINE
  8
0-0
  6
CONTINUOUS
 62
    7
 10
96784.617
 20
89057.824
 11
94666.127
 21
87567.355
  0
LINE
  8
0-0
  6
CONTINUOUS
 62
    7
 10
94666.127
 20
87567.355
 11
91794.053
 21
85465.621
  0
LINE
  8
0-0
  6
CONTINUOUS
 62
    7
 10
91794.053
 20
85465.621
 11
89055.934
 21
83522.991
  0
LINE
  8
0-0
  6
CONTINUOUS
 62
    7
 10
89055.934
 20
83522.991
 11
86476.918
 21
81672.458
  0
LINE
  8
0-0
  6
CONTINUOUS
 62
    7
 10
86476.918
 20
81672.458
 11
83370.38
 21
79503.757
  0
LINE
  8
0-0
  6
CONTINUOUS
 62
    7
 10
83370.38
 20
80726.268
 11
83973.272
 21
79897.295
  0
LINE
  8
0-0
  6
CONTINUOUS
 62
    7
 10
84375.204
 20
81479.881
 11
85019.972
 21
80667.655
  0
LINE
  8
0-0
  6
CONTINUOUS
 62
    7
 10
85430.257
 20
82283.724
 11
86074.987
 21
81387.774
  0
LINE
  8
0-0
  6
CONTINUOUS
 62
    7
 10
86560.661
 20
83079.193
 11
87213.794
 21
82233.483
  0
LINE
  8
0-0
  6
CONTINUOUS
 62
    7
 10
87858.543
 20
84025.393
 11
88453.061
 21
83221.55
  0
LINE
  8
0-0
  6
CONTINUOUS
 62
    7
 10
89022.45
 20
84820.872
 11
89650.452
 21
83941.659
  0
LINE
  8
0-0
  6
CONTINUOUS
 62
    7
 10
89960.277
 20
85465.621
 11
90571.522
 21
84636.668
  0
LINE
  8
0-0
  6
CONTINUOUS
 62
    7
 10
91609.839
 20
86629.529
 11
92204.348
 21
85767.072
  0
LINE
  8
0-0
  6
CONTINUOUS
 62
    7
 10
92706.75
 20
87425.008
 11
93318.015
 21
86629.529
  0
LINE
  8
0-0
  6
CONTINUOUS
 62
    7
 10
94038.134
 20
88413.065
 11
94666.127
 21
87584.092
  0
LINE
  8
0-0
  6
CONTINUOUS
 62
    7
 10
95344.379
 20
89325.772
 11
95955.644
 21
88555.422
  0
LINE
  8
0-0
  6
CONTINUOUS
 62
    7
 10
90496.172
 20
85859.179
 11
91140.931
 21
85030.197
  0
LINE
  8
0-0
  6
CONTINUOUS
 62
    7
 10
97898.274
 20
91100.935
 11
98450.916
 21
90405.945
  0
LINE
  8
0-0
  6
CONTINUOUS
 62
    7
 10
97931.758
 20
91100.935
 11
99497.597
 21
91209.788
  0
LINE
  8
0-0
  6
CONTINUOUS
 62
    7
 10
97931.758
 20
91100.935
 11
97253.516
 21
89417.879
  0
LINE
  8
0-0
  6
CONTINUOUS
 62
    7
 10
97253.516
 20
89417.879
 11
96692.5
 21
90221.731
  0
LINE
  8
0-0
  6
CONTINUOUS
 62
    7
 10
97228.395
 20
89451.372
 11
95386.236
 21
89309.025
  0
LINE
  8
0-0
  6
CONTINUOUS
 62
    7
 10
95386.236
 20
89309.025
 11
94666.127
 21
87567.355
  0
LINE
  8
0-0
  6
CONTINUOUS
 62
    7
 10
94666.127
 20
87567.355
 11
92740.243
 21
87408.262
  0
LINE
  8
0-0
  6
CONTINUOUS
 62
    7
 10
92706.75
 20
87425.008
 11
92237.841
 21
85767.072
  0
LINE
  8
0-0
  6
CONTINUOUS
 62
    7
 10
92237.841
 20
85767.072
 11
90496.172
 21
85825.676
  0
LINE
  8
0-0
  6
CONTINUOUS
 62
    7
 10
89993.76
 20
85465.621
 11
89650.452
 21
83941.659
  0
LINE
  8
0-0
  6
CONTINUOUS
 62
    7
 10
89650.452
 20
83941.659
 11
87875.289
 21
83975.153
  0
LINE
  8
0-0
  6
CONTINUOUS
 62
    7
 10
87875.289
 20
83975.153
 11
87230.54
 21
82199.99
  0
LINE
  8
0-0
  6
CONTINUOUS
 62
    7
 10
87230.54
 20
82199.99
 11
85430.257
 21
82266.967
  0
LINE
  8
0-0
  6
CONTINUOUS
 62
    7
 10
85430.257
 20
82266.967
 11
85019.972
 21
80667.655
  0
LINE
  8
0-0
  6
CONTINUOUS
 62
    7
 10
85019.972
 20
80667.655
 11
83370.38
 21
80726.268
  0
LINE
  8
0-0
  6
CONTINUOUS
 62
    7
 10
83370.38
 20
80726.268
 11
83219.67
 21
79738.211
  0
LINE
  8
0-0
  6
CONTINUOUS
 62
    7
 10
74134.511
 20
79570.734
 11
75532.863
 21
79570.734
  0
LINE
  8
0-0
  6
CONTINUOUS
 62
    7
 10
75532.863
 20
79570.734
 11
75532.863
 21
76631.664
  0
LINE
  8
0-0
  6
CONTINUOUS
 62
    7
 10
75532.863
 20
76631.664
 11
74134.511
 21
76631.664
  0
LINE
  8
0-0
  6
CONTINUOUS
 62
    7
 10
74134.511
 20
76631.664
 11
74134.511
 21
79570.734
  0
LINE
  8
0-0
  6
CONTINUOUS
 62
    7
 10
68892.751
 20
79537.241
 11
71689.469
 21
79537.241
  0
LINE
  8
0-0
  6
CONTINUOUS
 62
    7
 10
71689.469
 20
79537.241
 11
68892.751
 21
76840.998
  0
LINE
  8
0-0
  6
CONTINUOUS
 62
    7
 10
68892.751
 20
76840.998
 11
71689.469
 21
76840.998
  0
LINE
  8
0-0
  6
CONTINUOUS
 62
    7
 10
71689.469
 20
76840.998
 11
68892.751
 21
79537.241
  0
LINE
  8
0-0
  6
CONTINUOUS
 62
    7
 10
68892.751
 20
79537.241
 11
68892.751
 21
76840.998
  0
LINE
  8
0-0
  6
CONTINUOUS
 62
    7
 10
71689.469
 20
79537.241
 11
71689.469
 21
76840.998
  0
LINE
  8
0-0
  6
CONTINUOUS
 62
    7
 10
68892.751
 20
79537.241
 11
71689.469
 21
79537.241
  0
LINE
  8
0-0
  6
CONTINUOUS
 62
    7
 10
71689.469
 20
79537.241
 11
71689.469
 21
76840.998
  0
LINE
  8
0-0
  6
CONTINUOUS
 62
    7
 10
71689.469
 20
76840.998
 11
68892.751
 21
76840.998
  0
LINE
  8
0-0
  6
CONTINUOUS
 62
    7
 10
68892.751
 20
76840.998
 11
68892.751
 21
79537.241
  0
LINE
  8
0-0
  6
CONTINUOUS
 62
    7
 10
76093.888
 20
79570.734
 11
78137.004
 21
79570.734
  0
LINE
  8
0-0
  6
CONTINUOUS
 62
    7
 10
78137.004
 20
79570.734
 11
78538.925
 21
77636.467
  0
LINE
  8
0-0
  6
CONTINUOUS
 62
    7
 10
78538.925
 20
77636.467
 11
76093.888
 21
77636.467
  0
LINE
  8
0-0
  6
CONTINUOUS
 62
    7
 10
76093.888
 20
77636.467
 11
76093.888
 21
79570.734
  0
LINE
  8
0-0
  6
CONTINUOUS
 62
    7
 10
67954.91
 20
82032.513
 11
68348.463
 21
82032.513
  0
LINE
  8
0-0
  6
CONTINUOUS
 62
    7
 10
68348.463
 20
82032.513
 11
68348.463
 21
80073.146
  0
LINE
  8
0-0
  6
CONTINUOUS
 62
    7
 10
68348.463
 20
80073.146
 11
67954.91
 21
80073.146
  0
LINE
  8
0-0
  6
CONTINUOUS
 62
    7
 10
67954.91
 20
80073.146
 11
67954.91
 21
82032.513
  0
LINE
  8
0-0
  6
CONTINUOUS
 62
    7
 10
68624.789
 20
82342.337
 11
71262.433
 21
80073.146
  0
LINE
  8
0-0
  6
CONTINUOUS
 62
    7
 10
68440.594
 20
82091.136
 11
70743.284
 21
80073.146
  0
LINE
  8
0-0
  6
CONTINUOUS
 62
    7
 10
105886.51
 20
81438.004
 11
105853
 21
81119.826
  0
LINE
  8
0-0
  6
CONTINUOUS
 62
    7
 10
105853
 20
81119.826
 11
105777.65
 21
80793.255
  0
LINE
  8
0-0
  6
CONTINUOUS
 62
    7
 10
105777.65
 20
80793.255
 11
105652.05
 21
80508.561
  0
LINE
  8
0-0
  6
CONTINUOUS
 62
    7
 10
105652.05
 20
80508.561
 11
105476.22
 21
80223.856
  0
LINE
  8
0-0
  6
CONTINUOUS
 62
    7
 10
105476.22
 20
80223.856
 11
105241.76
 21
79989.412
  0
LINE
  8
0-0
  6
CONTINUOUS
 62
    7
 10
105241.76
 20
79989.412
 11
104973.81
 21
79771.695
  0
LINE
  8
0-0
  6
CONTINUOUS
 62
    7
 10
104973.81
 20
79771.695
 11
104689.12
 21
79612.601
  0
LINE
  8
0-0
  6
CONTINUOUS
 62
    7
 10
104689.12
 20
79612.601
 11
104362.56
 21
79487.001
  0
LINE
  8
0-0
  6
CONTINUOUS
 62
    7
 10
104362.56
 20
79487.001
 11
104019.23
 21
79394.894
  0
LINE
  8
0-0
  6
CONTINUOUS
 62
    7
 10
104019.23
 20
79394.894
 11
103675.93
 21
79378.147
  0
LINE
  8
0-0
  6
CONTINUOUS
 62
    7
 10
103675.93
 20
79378.147
 11
103324.26
 21
79394.894
  0
LINE
  8
0-0
  6
CONTINUOUS
 62
    7
 10
103324.26
 20
79394.894
 11
102980.93
 21
79487.001
  0
LINE
  8
0-0
  6
CONTINUOUS
 62
    7
 10
102980.93
 20
79487.001
 11
102654.37
 21
79612.601
  0
LINE
  8
0-0
  6
CONTINUOUS
 62
    7
 10
102654.37
 20
79612.601
 11
102369.68
 21
79771.695
  0
LINE
  8
0-0
  6
CONTINUOUS
 62
    7
 10
102369.68
 20
79771.695
 11
102101.73
 21
79989.412
  0
LINE
  8
0-0
  6
CONTINUOUS
 62
    7
 10
102101.73
 20
79989.412
 11
101867.27
 21
80223.856
  0
LINE
  8
0-0
  6
CONTINUOUS
 62
    7
 10
101867.27
 20
80223.856
 11
101683.05
 21
80508.561
  0
LINE
  8
0-0
  6
CONTINUOUS
 62
    7
 10
101683.05
 20
80508.561
 11
101557.44
 21
80793.255
  0
LINE
  8
0-0
  6
CONTINUOUS
 62
    7
 10
101557.44
 20
80793.255
 11
101490.48
 21
81119.826
  0
LINE
  8
0-0
  6
CONTINUOUS
 62
    7
 10
101490.48
 20
81119.826
 11
101448.62
 21
81438.004
  0
LINE
  8
0-0
  6
CONTINUOUS
 62
    7
 10
101473.72
 20
81295.657
 11
101473.72
 21
81496.627
  0
LINE
  8
0-0
  6
CONTINUOUS
 62
    7
 10
101473.72
 20
81496.627
 11
105869.77
 21
81496.627
  0
LINE
  8
0-0
  6
CONTINUOUS
 62
    7
 10
105869.77
 20
81496.627
 11
105869.77
 21
81295.657
  0
LINE
  8
0-0
  6
CONTINUOUS
 62
    7
 10
105869.77
 20
81295.657
 11
101473.72
 21
81295.657
  0
LINE
  8
0-0
  6
CONTINUOUS
 62
    7
 10
103675.93
 20
81496.627
 11
103675.93
 21
79394.894
  0
LINE
  8
0-0
  6
CONTINUOUS
 62
    7
 10
103282.38
 20
79445.124
 11
104161.58
 21
79445.124
  0
LINE
  8
0-0
  6
CONTINUOUS
 62
    7
 10
104161.58
 20
79445.124
 11
104161.58
 21
79344.653
  0
LINE
  8
0-0
  6
CONTINUOUS
 62
    7
 10
104161.58
 20
79344.653
 11
103282.38
 21
79344.653
  0
LINE
  8
0-0
  6
CONTINUOUS
 62
    7
 10
103282.38
 20
79344.653
 11
103282.38
 21
79445.124
  0
LINE
  8
0-0
  6
CONTINUOUS
 62
    7
 10
104161.58
 20
79378.147
 11
103031.17
 21
79126.946
  0
LINE
  8
0-0
  6
CONTINUOUS
 62
    7
 10
103031.17
 20
79126.946
 11
103843.41
 21
79394.894
  0
LINE
  8
0-0
  6
CONTINUOUS
 62
    7
 10
103282.38
 20
79344.653
 11
104186.71
 21
79051.576
  0
LINE
  8
0-0
  6
CONTINUOUS
 62
    7
 10
104186.71
 20
79051.576
 11
103625.69
 21
79344.653
  0
LINE
  8
0-0
  6
CONTINUOUS
 62
    7
 10
103374.48
 20
83774.192
 11
104035.98
 21
83774.192
  0
LINE
  8
0-0
  6
CONTINUOUS
 62
    7
 10
104035.98
 20
83774.192
 11
104035.98
 21
82987.096
  0
LINE
  8
0-0
  6
CONTINUOUS
 62
    7
 10
104035.98
 20
82987.096
 11
103374.48
 21
82987.096
  0
LINE
  8
0-0
  6
CONTINUOUS
 62
    7
 10
103374.48
 20
82987.096
 11
103374.48
 21
83774.192
  0
LINE
  8
0-0
  6
CONTINUOUS
 62
    7
 10
103374.48
 20
82233.483
 11
103985.75
 21
82233.483
  0
LINE
  8
0-0
  6
CONTINUOUS
 62
    7
 10
103985.75
 20
82233.483
 11
103985.75
 21
81496.627
  0
LINE
  8
0-0
  6
CONTINUOUS
 62
    7
 10
103985.75
 20
81496.627
 11
103374.48
 21
81496.627
  0
LINE
  8
0-0
  6
CONTINUOUS
 62
    7
 10
103374.48
 20
81496.627
 11
103374.48
 21
82233.483
  0
LINE
  8
0-0
  6
CONTINUOUS
 62
    7
 10
101775.18
 20
81496.627
 11
103391.24
 21
83271.781
  0
LINE
  8
0-0
  6
CONTINUOUS
 62
    7
 10
102135.21
 20
81496.627
 11
103533.58
 21
82987.096
  0
LINE
  8
0-0
  6
CONTINUOUS
 62
    7
 10
104035.98
 20
83238.297
 11
105618.56
 21
81496.627
  0
LINE
  8
0-0
  6
CONTINUOUS
 62
    7
 10
103935.5
 20
82987.096
 11
105275.24
 21
81496.627
  0
LINE
  8
0-0
  6
CONTINUOUS
 62
    7
 10
103876.88
 20
83774.192
 11
103876.88
 21
94718.257
  0
LINE
  8
0-0
  6
CONTINUOUS
 62
    7
 10
103575.46
 20
83774.192
 11
103575.46
 21
93998.138
  0
LINE
  8
0-0
  6
CONTINUOUS
 62
    7
 10
54180.638
 20
77326.653
 11
54180.638
 21
78356.587
  0
LINE
  8
0-0
  6
CONTINUOUS
 62
    7
 10
54180.638
 20
78356.587
 11
58325.488
 21
78230.986
  0
LINE
  8
0-0
  6
CONTINUOUS
 62
    7
 10
58325.488
 20
78230.986
 11
58811.143
 21
77075.452
  0
LINE
  8
0-0
  6
CONTINUOUS
 62
    7
 10
57396.034
 20
78230.986
 11
57396.034
 21
77150.812
  0
LINE
  8
0-0
  6
CONTINUOUS
 62
    7
 10
55872.072
 20
78297.973
 11
55872.072
 21
77259.676
  0
LINE
  8
0-0
  6
CONTINUOUS
 62
    7
 10
54775.147
 20
78331.466
 11
54775.147
 21
77293.16
  0
LINE
  8
0-0
  6
CONTINUOUS
 62
    7
 10
54180.638
 20
77971.412
 11
58492.955
 21
77795.571
  0
LINE
  8
0-0
  6
CONTINUOUS
 62
    7
 10
54180.638
 20
77636.467
 11
58635.297
 21
77435.517
  0
LINE
  8
0-0
  6
CONTINUOUS
 62
    7
 10
62729.901
 20
75978.532
 11
64706.025
 21
75978.532
  0
LINE
  8
0-0
  6
CONTINUOUS
 62
    7
 10
64706.025
 20
75978.532
 11
64706.025
 21
75643.597
  0
LINE
  8
0-0
  6
CONTINUOUS
 62
    7
 10
64706.025
 20
75643.597
 11
62729.901
 21
75643.597
  0
LINE
  8
0-0
  6
CONTINUOUS
 62
    7
 10
62729.901
 20
75643.597
 11
62729.901
 21
75978.532
  0
LINE
  8
0-0
  6
CONTINUOUS
 62
    7
 10
62227.495
 20
75752.451
 11
62964.346
 21
76430.713
  0
LINE
  8
0-0
  6
CONTINUOUS
 62
    7
 10
62964.346
 20
76430.713
 11
64563.683
 21
76430.713
  0
LINE
  8
0-0
  6
CONTINUOUS
 62
    7
 10
64563.683
 20
76430.713
 11
64563.683
 21
75978.532
  0
LINE
  8
0-0
  6
CONTINUOUS
 62
    7
 10
64563.683
 20
75978.532
 11
64505.064
 21
75978.532
  0
LINE
  8
0-0
  6
CONTINUOUS
 62
    7
 10
64505.064
 20
75978.532
 11
64362.722
 21
75978.532
  0
LINE
  8
0-0
  6
CONTINUOUS
 62
    7
 10
58727.409
 20
73198.56
 11
58886.503
 21
73399.526
  0
LINE
  8
0-0
  6
CONTINUOUS
 62
    7
 10
58886.503
 20
73399.526
 11
59062.339
 21
73165.072
  0
LINE
  8
0-0
  6
CONTINUOUS
 62
    7
 10
59062.339
 20
73165.072
 11
59087.464
 21
72763.14
  0
LINE
  8
0-0
  6
CONTINUOUS
 62
    7
 10
59087.464
 20
72763.14
 11
59338.66
 21
72763.14
  0
LINE
  8
0-0
  6
CONTINUOUS
 62
    7
 10
59338.66
 20
72763.14
 11
59514.5
 21
73148.325
  0
LINE
  8
0-0
  6
CONTINUOUS
 62
    7
 10
59514.5
 20
73148.325
 11
59673.604
 21
73148.325
  0
LINE
  8
0-0
  6
CONTINUOUS
 62
    7
 10
59673.604
 20
73148.325
 11
59782.463
 21
73056.218
  0
LINE
  8
0-0
  6
CONTINUOUS
 62
    7
 10
59782.463
 20
73056.218
 11
59782.463
 21
72947.354
  0
LINE
  8
0-0
  6
CONTINUOUS
 62
    7
 10
59782.463
 20
72947.354
 11
59623.354
 21
72637.54
  0
LINE
  8
0-0
  6
CONTINUOUS
 62
    7
 10
59623.354
 20
72637.54
 11
59564.745
 21
72386.339
  0
LINE
  8
0-0
  6
CONTINUOUS
 62
    7
 10
59564.745
 20
72386.339
 11
60092.282
 21
72511.935
  0
LINE
  8
0-0
  6
CONTINUOUS
 62
    7
 10
60092.282
 20
72511.935
 11
60469.074
 21
72495.193
  0
LINE
  8
0-0
  6
CONTINUOUS
 62
    7
 10
60469.074
 20
72495.193
 11
60284.86
 21
72302.61
  0
LINE
  8
0-0
  6
CONTINUOUS
 62
    7
 10
60284.86
 20
72302.61
 11
59464.26
 21
71850.434
  0
LINE
  8
0-0
  6
CONTINUOUS
 62
    7
 10
59464.26
 20
71850.434
 11
59313.539
 21
71942.551
  0
LINE
  8
0-0
  6
CONTINUOUS
 62
    7
 10
59313.539
 20
71942.551
 11
59372.158
 21
72193.757
  0
LINE
  8
0-0
  6
CONTINUOUS
 62
    7
 10
59372.158
 20
72193.757
 11
58886.503
 21
72411.459
  0
LINE
  8
0-0
  6
CONTINUOUS
 62
    7
 10
58886.503
 20
72411.459
 11
58744.151
 21
72260.739
  0
LINE
  8
0-0
  6
CONTINUOUS
 62
    7
 10
58744.151
 20
72260.739
 11
58492.955
 21
72260.739
  0
LINE
  8
0-0
  6
CONTINUOUS
 62
    7
 10
58492.955
 20
72260.739
 11
58559.947
 21
72587.31
  0
LINE
  8
0-0
  6
CONTINUOUS
 62
    7
 10
58559.947
 20
72587.31
 11
58727.409
 21
73215.302
  0
LINE
  8
0-0
  6
CONTINUOUS
 62
    7
 10
59087.464
 20
73039.471
 11
59280.056
 21
73290.672
  0
LINE
  8
0-0
  6
CONTINUOUS
 62
    7
 10
59280.056
 20
73290.672
 11
59514.5
 21
73106.453
  0
LINE
  8
0-0
  6
CONTINUOUS
 62
    7
 10
59782.463
 20
72855.257
 11
60033.659
 21
72662.66
  0
LINE
  8
0-0
  6
CONTINUOUS
 62
    7
 10
60033.659
 20
72662.66
 11
59924.805
 21
72495.193
  0
LINE
  8
0-0
  6
CONTINUOUS
 62
    7
 10
58836.258
 20
72319.352
 11
59280.056
 21
72101.645
  0
LINE
  8
0-0
  6
CONTINUOUS
 62
    7
 10
126870.27
 20
78230.986
 11
123889.34
 21
78230.986
  0
LINE
  8
0-0
  6
CONTINUOUS
 62
    7
 10
123889.34
 20
78230.986
 11
123345.08
 21
78230.986
  0
LINE
  8
0-0
  6
CONTINUOUS
 62
    7
 10
123345.08
 20
78230.986
 11
122985.02
 21
78331.466
  0
LINE
  8
0-0
  6
CONTINUOUS
 62
    7
 10
122985.02
 20
78331.466
 11
122650.08
 21
78532.427
  0
LINE
  8
0-0
  6
CONTINUOUS
 62
    7
 10
122650.08
 20
78532.427
 11
121427.59
 21
80131.759
  0
LINE
  8
0-0
  6
CONTINUOUS
 62
    7
 10
121427.59
 20
80131.759
 11
121285.25
 21
80324.337
  0
LINE
  8
0-0
  6
CONTINUOUS
 62
    7
 10
121285.25
 20
80324.337
 11
121285.25
 21
80667.655
  0
LINE
  8
0-0
  6
CONTINUOUS
 62
    7
 10
121285.25
 20
80667.655
 11
121301.98
 21
80851.869
  0
LINE
  8
0-0
  6
CONTINUOUS
 62
    7
 10
121301.98
 20
80851.869
 11
121536.42
 21
80885.362
  0
LINE
  8
0-0
  6
CONTINUOUS
 62
    7
 10
121536.42
 20
80885.362
 11
122733.81
 21
80851.869
  0
LINE
  8
0-0
  6
CONTINUOUS
 62
    7
 10
122733.81
 20
80851.869
 11
122733.81
 21
81387.774
  0
LINE
  8
0-0
  6
CONTINUOUS
 62
    7
 10
129365.56
 20
76506.073
 11
127280.58
 21
76447.44
  0
LINE
  8
0-0
  6
CONTINUOUS
 62
    7
 10
127280.58
 20
76447.44
 11
127062.86
 21
76506.073
  0
LINE
  8
0-0
  6
CONTINUOUS
 62
    7
 10
127062.86
 20
76506.073
 11
126828.41
 21
76807.495
  0
LINE
  8
0-0
  6
CONTINUOUS
 62
    7
 10
126828.41
 20
76807.495
 11
126669.34
 21
77075.452
  0
LINE
  8
0-0
  6
CONTINUOUS
 62
    7
 10
126669.34
 20
77075.452
 11
126577.22
 21
77452.263
  0
LINE
  8
0-0
  6
CONTINUOUS
 62
    7
 10
126577.22
 20
77452.263
 11
126686.07
 21
77686.708
  0
LINE
  8
0-0
  6
CONTINUOUS
 62
    7
 10
126686.07
 20
77686.708
 11
126870.27
 21
77829.065
  0
LINE
  8
0-0
  6
CONTINUOUS
 62
    7
 10
126870.27
 20
77829.065
 11
128536.6
 21
77904.425
  0
LINE
  8
0-0
  6
CONTINUOUS
 62
    7
 10
128536.6
 20
77904.425
 11
128787.8
 21
77937.918
  0
LINE
  8
0-0
  6
CONTINUOUS
 62
    7
 10
128787.8
 20
77937.918
 11
128988.77
 21
77829.065
  0
LINE
  8
0-0
  6
CONTINUOUS
 62
    7
 10
128988.77
 20
77829.065
 11
129181.36
 21
77795.571
  0
LINE
  8
0-0
  6
CONTINUOUS
 62
    7
 10
129181.36
 20
77795.571
 11
129524.68
 21
77201.053
  0
LINE
  8
0-0
  6
CONTINUOUS
 62
    7
 10
129524.68
 20
77201.053
 11
129616.77
 21
76899.621
  0
LINE
  8
0-0
  6
CONTINUOUS
 62
    7
 10
129616.77
 20
76899.621
 11
129558.14
 21
76698.651
  0
LINE
  8
0-0
  6
CONTINUOUS
 62
    7
 10
129558.14
 20
76698.651
 11
129474.42
 21
76589.787
  0
LINE
  8
0-0
  6
CONTINUOUS
 62
    7
 10
129474.42
 20
76589.787
 11
129365.56
 21
76506.073
  0
LINE
  8
0-0
  6
CONTINUOUS
 62
    7
 10
125965.96
 20
76413.956
 11
123889.34
 21
76355.333
  0
LINE
  8
0-0
  6
CONTINUOUS
 62
    7
 10
123889.34
 20
76355.333
 11
123671.64
 21
76413.956
  0
LINE
  8
0-0
  6
CONTINUOUS
 62
    7
 10
123671.64
 20
76413.956
 11
123437.19
 21
76715.397
  0
LINE
  8
0-0
  6
CONTINUOUS
 62
    7
 10
123437.19
 20
76715.397
 11
123278.1
 21
76991.728
  0
LINE
  8
0-0
  6
CONTINUOUS
 62
    7
 10
123278.1
 20
76991.728
 11
123185.99
 21
77368.52
  0
LINE
  8
0-0
  6
CONTINUOUS
 62
    7
 10
123185.99
 20
77368.52
 11
123294.83
 21
77594.601
  0
LINE
  8
0-0
  6
CONTINUOUS
 62
    7
 10
123294.83
 20
77594.601
 11
123470.69
 21
77745.331
  0
LINE
  8
0-0
  6
CONTINUOUS
 62
    7
 10
123470.69
 20
77745.331
 11
125145.39
 21
77812.318
  0
LINE
  8
0-0
  6
CONTINUOUS
 62
    7
 10
125145.39
 20
77812.318
 11
125396.56
 21
77845.811
  0
LINE
  8
0-0
  6
CONTINUOUS
 62
    7
 10
125396.56
 20
77845.811
 11
125589.15
 21
77745.331
  0
LINE
  8
0-0
  6
CONTINUOUS
 62
    7
 10
125589.15
 20
77745.331
 11
125790.11
 21
77703.464
  0
LINE
  8
0-0
  6
CONTINUOUS
 62
    7
 10
125790.11
 20
77703.464
 11
126133.44
 21
77117.319
  0
LINE
  8
0-0
  6
CONTINUOUS
 62
    7
 10
126133.44
 20
77117.319
 11
126217.16
 21
76807.495
  0
LINE
  8
0-0
  6
CONTINUOUS
 62
    7
 10
126217.16
 20
76807.495
 11
126166.92
 21
76606.544
  0
LINE
  8
0-0
  6
CONTINUOUS
 62
    7
 10
126166.92
 20
76606.544
 11
126074.81
 21
76506.073
  0
LINE
  8
0-0
  6
CONTINUOUS
 62
    7
 10
126074.81
 20
76506.073
 11
125965.96
 21
76413.956
  0
LINE
  8
0-0
  6
CONTINUOUS
 62
    7
 10
122541.24
 20
76288.366
 11
120456.25
 21
76229.733
  0
LINE
  8
0-0
  6
CONTINUOUS
 62
    7
 10
120456.25
 20
76229.733
 11
120238.54
 21
76288.366
  0
LINE
  8
0-0
  6
CONTINUOUS
 62
    7
 10
120238.54
 20
76288.366
 11
120004.1
 21
76589.787
  0
LINE
  8
0-0
  6
CONTINUOUS
 62
    7
 10
120004.1
 20
76589.787
 11
119845
 21
76866.128
  0
LINE
  8
0-0
  6
CONTINUOUS
 62
    7
 10
119845
 20
76866.128
 11
119752.91
 21
77242.919
  0
LINE
  8
0-0
  6
CONTINUOUS
 62
    7
 10
119752.91
 20
77242.919
 11
119861.73
 21
77469
  0
LINE
  8
0-0
  6
CONTINUOUS
 62
    7
 10
119861.73
 20
77469
 11
120045.96
 21
77619.731
  0
LINE
  8
0-0
  6
CONTINUOUS
 62
    7
 10
120045.96
 20
77619.731
 11
121712.27
 21
77686.708
  0
LINE
  8
0-0
  6
CONTINUOUS
 62
    7
 10
121712.27
 20
77686.708
 11
121963.45
 21
77720.211
  0
LINE
  8
0-0
  6
CONTINUOUS
 62
    7
 10
121963.45
 20
77720.211
 11
122164.43
 21
77619.731
  0
LINE
  8
0-0
  6
CONTINUOUS
 62
    7
 10
122164.43
 20
77619.731
 11
122357.02
 21
77577.864
  0
LINE
  8
0-0
  6
CONTINUOUS
 62
    7
 10
122357.02
 20
77577.864
 11
122700.33
 21
76991.728
  0
LINE
  8
0-0
  6
CONTINUOUS
 62
    7
 10
122700.33
 20
76991.728
 11
122792.44
 21
76681.894
  0
LINE
  8
0-0
  6
CONTINUOUS
 62
    7
 10
122792.44
 20
76681.894
 11
122733.81
 21
76480.943
  0
LINE
  8
0-0
  6
CONTINUOUS
 62
    7
 10
122733.81
 20
76480.943
 11
122650.08
 21
76380.463
  0
LINE
  8
0-0
  6
CONTINUOUS
 62
    7
 10
122650.08
 20
76380.463
 11
122541.24
 21
76288.366
  0
LINE
  8
0-0
  6
CONTINUOUS
 62
    7
 10
115842.52
 20
74956.981
 11
115842.52
 21
77259.676
  0
LINE
  8
0-0
  6
CONTINUOUS
 62
    7
 10
115842.52
 20
77259.676
 11
115968.12
 21
77452.263
  0
LINE
  8
0-0
  6
CONTINUOUS
 62
    7
 10
115968.12
 20
77452.263
 11
116110.46
 21
77577.864
  0
LINE
  8
0-0
  6
CONTINUOUS
 62
    7
 10
116110.46
 20
77577.864
 11
116537.49
 21
77594.601
  0
LINE
  8
0-0
  6
CONTINUOUS
 62
    7
 10
116537.49
 20
77594.601
 11
118731.34
 21
77594.601
  0
LINE
  8
0-0
  6
CONTINUOUS
 62
    7
 10
118731.34
 20
77594.601
 11
118907.17
 21
77527.624
  0
LINE
  8
0-0
  6
CONTINUOUS
 62
    7
 10
118907.17
 20
77527.624
 11
119283.98
 21
77150.812
  0
LINE
  8
0-0
  6
CONTINUOUS
 62
    7
 10
119283.98
 20
77150.812
 11
119451.45
 21
76648.42
  0
LINE
  8
0-0
  6
CONTINUOUS
 62
    7
 10
119451.45
 20
76648.42
 11
119392.82
 21
76430.713
  0
LINE
  8
0-0
  6
CONTINUOUS
 62
    7
 10
119392.82
 20
76430.713
 11
119309.09
 21
76288.366
  0
LINE
  8
0-0
  6
CONTINUOUS
 62
    7
 10
119309.09
 20
76288.366
 11
118890.42
 21
76196.249
  0
LINE
  8
0-0
  6
CONTINUOUS
 62
    7
 10
118890.42
 20
76196.249
 11
116303.04
 21
76196.249
  0
LINE
  8
0-0
  6
CONTINUOUS
 62
    7
 10
116303.04
 20
76196.249
 11
116361.67
 21
75693.837
  0
LINE
  8
0-0
  6
CONTINUOUS
 62
    7
 10
115842.52
 20
79738.211
 11
115842.52
 21
80600.668
  0
LINE
  8
0-0
  6
CONTINUOUS
 62
    7
 10
115842.52
 20
80600.668
 11
115909.49
 21
80743.015
  0
LINE
  8
0-0
  6
CONTINUOUS
 62
    7
 10
115909.49
 20
80743.015
 11
116110.46
 21
80835.122
  0
LINE
  8
0-0
  6
CONTINUOUS
 62
    7
 10
116110.46
 20
80835.122
 11
116864.06
 21
80835.122
  0
LINE
  8
0-0
  6
CONTINUOUS
 62
    7
 10
116864.06
 20
80835.122
 11
117115.27
 21
80726.268
  0
LINE
  8
0-0
  6
CONTINUOUS
 62
    7
 10
117115.27
 20
80726.268
 11
117542.31
 21
79947.545
  0
LINE
  8
0-0
  6
CONTINUOUS
 62
    7
 10
117542.31
 20
79947.545
 11
117634.42
 21
79646.094
  0
LINE
  8
0-0
  6
CONTINUOUS
 62
    7
 10
117634.42
 20
79646.094
 11
117508.82
 21
79570.734
  0
LINE
  8
0-0
  6
CONTINUOUS
 62
    7
 10
117508.82
 20
79570.734
 11
117399.96
 21
79503.757
  0
LINE
  8
0-0
  6
CONTINUOUS
 62
    7
 10
117399.96
 20
79503.757
 11
116286.29
 21
79503.757
  0
LINE
  8
0-0
  6
CONTINUOUS
 62
    7
 10
116286.29
 20
79503.757
 11
116035.08
 21
79570.734
  0
LINE
  8
0-0
  6
CONTINUOUS
 62
    7
 10
116035.08
 20
79570.734
 11
115909.49
 21
79646.094
  0
LINE
  8
0-0
  6
CONTINUOUS
 62
    7
 10
115909.49
 20
79646.094
 11
115842.52
 21
79696.335
  0
LINE
  8
0-0
  6
CONTINUOUS
 62
    7
 10
118588.98
 20
79595.854
 11
118295.92
 21
79696.335
  0
LINE
  8
0-0
  6
CONTINUOUS
 62
    7
 10
118295.92
 20
79696.335
 11
118136.83
 21
79847.055
  0
LINE
  8
0-0
  6
CONTINUOUS
 62
    7
 10
118136.83
 20
79847.055
 11
117885.63
 21
80433.2
  0
LINE
  8
0-0
  6
CONTINUOUS
 62
    7
 10
117885.63
 20
80433.2
 11
117852.13
 21
80776.508
  0
LINE
  8
0-0
  6
CONTINUOUS
 62
    7
 10
117852.13
 20
80776.508
 11
118086.58
 21
80885.362
  0
LINE
  8
0-0
  6
CONTINUOUS
 62
    7
 10
118086.58
 20
80885.362
 11
120079.47
 21
80885.362
  0
LINE
  8
0-0
  6
CONTINUOUS
 62
    7
 10
120079.47
 20
80885.362
 11
120255.29
 21
80776.508
  0
LINE
  8
0-0
  6
CONTINUOUS
 62
    7
 10
120255.29
 20
80776.508
 11
120439.52
 21
80684.401
  0
LINE
  8
0-0
  6
CONTINUOUS
 62
    7
 10
120439.52
 20
80684.401
 11
120774.45
 21
80148.496
  0
LINE
  8
0-0
  6
CONTINUOUS
 62
    7
 10
120774.45
 20
80148.496
 11
120849.81
 21
79930.789
  0
LINE
  8
0-0
  6
CONTINUOUS
 62
    7
 10
120849.81
 20
79930.789
 11
120833.07
 21
79821.935
  0
LINE
  8
0-0
  6
CONTINUOUS
 62
    7
 10
120833.07
 20
79821.935
 11
120740.96
 21
79696.335
  0
LINE
  8
0-0
  6
CONTINUOUS
 62
    7
 10
120740.96
 20
79696.335
 11
120523.25
 21
79629.358
  0
LINE
  8
0-0
  6
CONTINUOUS
 62
    7
 10
120523.25
 20
79629.358
 11
118605.74
 21
79595.854
  0
LINE
  8
0-0
  6
CONTINUOUS
 62
    7
 10
121603.41
 20
81387.774
 11
119501.71
 21
81387.774
  0
LINE
  8
0-0
  6
CONTINUOUS
 62
    7
 10
119501.71
 20
81387.774
 11
119091.4
 21
81638.965
  0
LINE
  8
0-0
  6
CONTINUOUS
 62
    7
 10
119091.4
 20
81638.965
 11
118697.83
 21
81923.669
  0
LINE
  8
0-0
  6
CONTINUOUS
 62
    7
 10
118697.83
 20
81923.669
 11
118530.39
 21
82325.59
  0
LINE
  8
0-0
  6
CONTINUOUS
 62
    7
 10
118530.39
 20
82325.59
 11
118530.39
 21
82677.282
  0
LINE
  8
0-0
  6
CONTINUOUS
 62
    7
 10
118530.39
 20
82677.282
 11
115515.94
 21
82677.282
  0
LINE
  8
0-0
  6
CONTINUOUS
 62
    7
 10
115549.44
 20
82643.778
 11
115549.44
 21
82677.282
  0
LINE
  8
0-0
  6
CONTINUOUS
 62
    7
 10
118547.11
 20
82593.538
 11
122624.97
 21
82593.538
  0
LINE
  8
0-0
  6
CONTINUOUS
 62
    7
 10
122624.97
 20
82627.041
 11
122624.97
 21
81086.323
  0
LINE
  8
0-0
  6
CONTINUOUS
 62
    7
 10
115859.26
 20
81563.605
 11
117567.43
 21
81563.605
  0
LINE
  8
0-0
  6
CONTINUOUS
 62
    7
 10
117567.43
 20
81563.605
 11
117567.43
 21
81086.323
  0
LINE
  8
0-0
  6
CONTINUOUS
 62
    7
 10
117567.43
 20
81086.323
 11
115859.26
 21
81086.323
  0
LINE
  8
0-0
  6
CONTINUOUS
 62
    7
 10
115859.26
 20
81086.323
 11
115859.26
 21
81563.605
  0
LINE
  8
0-0
  6
CONTINUOUS
 62
    7
 10
115750.39
 20
84226.354
 11
116897.56
 21
84226.354
  0
LINE
  8
0-0
  6
CONTINUOUS
 62
    7
 10
116897.56
 20
84226.354
 11
116897.56
 21
83238.297
  0
LINE
  8
0-0
  6
CONTINUOUS
 62
    7
 10
116897.56
 20
83238.297
 11
115750.39
 21
83238.297
  0
LINE
  8
0-0
  6
CONTINUOUS
 62
    7
 10
115750.39
 20
83238.297
 11
115750.39
 21
84226.354
  0
LINE
  8
0-0
  6
CONTINUOUS
 62
    7
 10
117148.75
 20
84226.354
 11
118295.92
 21
84226.354
  0
LINE
  8
0-0
  6
CONTINUOUS
 62
    7
 10
118295.92
 20
84226.354
 11
118295.92
 21
83238.297
  0
LINE
  8
0-0
  6
CONTINUOUS
 62
    7
 10
118295.92
 20
83238.297
 11
117148.75
 21
83238.297
  0
LINE
  8
0-0
  6
CONTINUOUS
 62
    7
 10
117148.75
 20
83238.297
 11
117148.75
 21
84226.354
  0
LINE
  8
0-0
  6
CONTINUOUS
 62
    7
 10
118823.43
 20
84226.354
 11
119970.59
 21
84226.354
  0
LINE
  8
0-0
  6
CONTINUOUS
 62
    7
 10
119970.59
 20
84226.354
 11
119970.59
 21
83238.297
  0
LINE
  8
0-0
  6
CONTINUOUS
 62
    7
 10
119970.59
 20
83238.297
 11
118823.43
 21
83238.297
  0
LINE
  8
0-0
  6
CONTINUOUS
 62
    7
 10
118823.43
 20
83238.297
 11
118823.43
 21
84226.354
  0
LINE
  8
0-0
  6
CONTINUOUS
 62
    7
 10
119878.51
 20
84226.354
 11
121025.66
 21
84226.354
  0
LINE
  8
0-0
  6
CONTINUOUS
 62
    7
 10
121025.66
 20
84226.354
 11
121025.66
 21
83238.297
  0
LINE
  8
0-0
  6
CONTINUOUS
 62
    7
 10
121025.66
 20
83238.297
 11
119878.51
 21
83238.297
  0
LINE
  8
0-0
  6
CONTINUOUS
 62
    7
 10
119878.51
 20
83238.297
 11
119878.51
 21
84226.354
  0
LINE
  8
0-0
  6
CONTINUOUS
 62
    7
 10
115750.39
 20
85767.072
 11
121226.62
 21
85767.072
  0
LINE
  8
0-0
  6
CONTINUOUS
 62
    7
 10
121226.62
 20
85767.072
 11
121226.62
 21
85180.937
  0
LINE
  8
0-0
  6
CONTINUOUS
 62
    7
 10
121226.62
 20
85180.937
 11
115750.39
 21
85180.937
  0
LINE
  8
0-0
  6
CONTINUOUS
 62
    7
 10
115750.39
 20
85180.937
 11
115750.39
 21
85767.072
  0
LINE
  8
0-0
  6
CONTINUOUS
 62
    7
 10
115750.39
 20
85465.621
 11
115750.39
 21
84678.515
  0
LINE
  8
0-0
  6
CONTINUOUS
 62
    7
 10
121193.12
 20
85415.381
 11
121193.12
 21
84678.515
  0
LINE
  8
0-0
  6
CONTINUOUS
 62
    7
 10
119685.9
 20
85767.072
 11
119685.9
 21
84678.515
  0
LINE
  8
0-0
  6
CONTINUOUS
 62
    7
 10
117793.51
 20
85767.072
 11
117793.51
 21
84678.515
  0
LINE
  8
0-0
  6
CONTINUOUS
 62
    7
 10
116487.26
 20
86545.795
 11
116612.88
 21
86545.795
  0
LINE
  8
0-0
  6
CONTINUOUS
 62
    7
 10
116612.88
 20
86545.795
 11
116721.71
 21
86520.675
  0
LINE
  8
0-0
  6
CONTINUOUS
 62
    7
 10
116721.71
 20
86520.675
 11
116847.32
 21
86503.928
  0
LINE
  8
0-0
  6
CONTINUOUS
 62
    7
 10
116847.32
 20
86503.928
 11
116931.05
 21
86487.182
  0
LINE
  8
0-0
  6
CONTINUOUS
 62
    7
 10
116931.05
 20
86487.182
 11
117023.15
 21
86453.688
  0
LINE
  8
0-0
  6
CONTINUOUS
 62
    7
 10
117023.15
 20
86453.688
 11
117115.27
 21
86420.195
  0
LINE
  8
0-0
  6
CONTINUOUS
 62
    7
 10
117115.27
 20
86420.195
 11
117165.52
 21
86378.328
  0
LINE
  8
0-0
  6
CONTINUOUS
 62
    7
 10
117165.52
 20
86378.328
 11
117224.12
 21
86328.088
  0
LINE
  8
0-0
  6
CONTINUOUS
 62
    7
 10
117224.12
 20
86328.088
 11
117240.87
 21
86294.594
  0
LINE
  8
0-0
  6
CONTINUOUS
 62
    7
 10
117240.87
 20
86294.594
 11
117257.61
 21
86219.234
  0
LINE
  8
0-0
  6
CONTINUOUS
 62
    7
 10
117257.61
 20
86219.234
 11
117240.87
 21
86168.994
  0
LINE
  8
0-0
  6
CONTINUOUS
 62
    7
 10
117240.87
 20
86168.994
 11
117224.12
 21
86127.127
  0
LINE
  8
0-0
  6
CONTINUOUS
 62
    7
 10
117224.12
 20
86127.127
 11
117165.52
 21
86076.887
  0
LINE
  8
0-0
  6
CONTINUOUS
 62
    7
 10
117165.52
 20
86076.887
 11
117115.27
 21
86043.393
  0
LINE
  8
0-0
  6
CONTINUOUS
 62
    7
 10
117115.27
 20
86043.393
 11
117023.15
 21
86001.527
  0
LINE
  8
0-0
  6
CONTINUOUS
 62
    7
 10
117023.15
 20
86001.527
 11
116931.05
 21
85968.033
  0
LINE
  8
0-0
  6
CONTINUOUS
 62
    7
 10
116931.05
 20
85968.033
 11
116847.32
 21
85951.277
  0
LINE
  8
0-0
  6
CONTINUOUS
 62
    7
 10
116847.32
 20
85951.277
 11
116721.71
 21
85934.54
  0
LINE
  8
0-0
  6
CONTINUOUS
 62
    7
 10
116721.71
 20
85934.54
 11
116612.88
 21
85917.793
  0
LINE
  8
0-0
  6
CONTINUOUS
 62
    7
 10
116612.88
 20
85917.793
 11
116487.26
 21
85917.793
  0
LINE
  8
0-0
  6
CONTINUOUS
 62
    7
 10
116453.75
 20
86520.675
 11
116453.75
 21
85917.793
  0
LINE
  8
0-0
  6
CONTINUOUS
 62
    7
 10
116453.75
 20
85917.793
 11
116219.3
 21
85917.793
  0
LINE
  8
0-0
  6
CONTINUOUS
 62
    7
 10
116219.3
 20
85917.793
 11
116219.3
 21
86520.675
  0
LINE
  8
0-0
  6
CONTINUOUS
 62
    7
 10
116219.3
 20
86520.675
 11
116453.75
 21
86520.675
  0
LINE
  8
0-0
  6
CONTINUOUS
 62
    7
 10
116504.02
 20
85917.793
 11
116755.21
 21
85917.793
  0
LINE
  8
0-0
  6
CONTINUOUS
 62
    7
 10
116755.21
 20
85917.793
 11
116755.21
 21
84712.019
  0
LINE
  8
0-0
  6
CONTINUOUS
 62
    7
 10
116755.21
 20
84712.019
 11
116504.02
 21
84712.019
  0
LINE
  8
0-0
  6
CONTINUOUS
 62
    7
 10
116504.02
 20
84712.019
 11
116504.02
 21
85917.793
  0
LINE
  8
0-0
  6
CONTINUOUS
 62
    7
 10
118697.83
 20
82074.38
 11
122624.97
 21
82074.38
  0
LINE
  8
0-0
  6
CONTINUOUS
 62
    7
 10
120238.54
 20
82593.538
 11
120238.54
 21
81387.774
  0
LINE
  8
0-0
  6
CONTINUOUS
 62
    7
 10
120941.92
 20
101500.72
 11
121946.7
 21
101500.72
  0
LINE
  8
0-0
  6
CONTINUOUS
 62
    7
 10
121946.7
 20
101500.72
 11
121946.7
 21
101324.88
  0
LINE
  8
0-0
  6
CONTINUOUS
 62
    7
 10
121946.7
 20
101324.88
 11
120941.92
 21
101324.88
  0
LINE
  8
0-0
  6
CONTINUOUS
 62
    7
 10
120941.92
 20
101324.88
 11
120941.92
 21
101500.72
  0
LINE
  8
0-0
  6
CONTINUOUS
 62
    7
 10
121536.42
 20
101324.88
 11
121695.52
 21
101324.88
  0
LINE
  8
0-0
  6
CONTINUOUS
 62
    7
 10
121695.52
 20
101324.88
 11
121695.52
 21
100981.57
  0
LINE
  8
0-0
  6
CONTINUOUS
 62
    7
 10
121695.52
 20
100981.57
 11
121536.42
 21
100981.57
  0
LINE
  8
0-0
  6
CONTINUOUS
 62
    7
 10
121536.42
 20
100981.57
 11
121536.42
 21
101324.88
  0
LINE
  8
0-0
  6
CONTINUOUS
 62
    7
 10
120740.96
 20
100981.57
 11
122432.38
 21
100981.57
  0
LINE
  8
0-0
  6
CONTINUOUS
 62
    7
 10
122432.38
 20
100981.57
 11
122432.38
 21
100353.57
  0
LINE
  8
0-0
  6
CONTINUOUS
 62
    7
 10
122432.38
 20
100353.57
 11
120740.96
 21
100353.57
  0
LINE
  8
0-0
  6
CONTINUOUS
 62
    7
 10
120740.96
 20
100353.57
 11
120740.96
 21
100981.57
  0
LINE
  8
0-0
  6
CONTINUOUS
 62
    7
 10
120004.1
 20
100336.82
 11
123889.34
 21
100336.82
  0
LINE
  8
0-0
  6
CONTINUOUS
 62
    7
 10
123889.34
 20
100336.82
 11
123889.34
 21
100194.47
  0
LINE
  8
0-0
  6
CONTINUOUS
 62
    7
 10
123889.34
 20
100194.47
 11
120004.1
 21
100194.47
  0
LINE
  8
0-0
  6
CONTINUOUS
 62
    7
 10
120004.1
 20
100194.47
 11
120004.1
 21
100336.82
  0
LINE
  8
0-0
  6
CONTINUOUS
 62
    7
 10
121335.46
 20
100194.47
 11
121745.77
 21
100194.47
  0
LINE
  8
0-0
  6
CONTINUOUS
 62
    7
 10
121745.77
 20
100194.47
 11
121745.77
 21
85767.072
  0
LINE
  8
0-0
  6
CONTINUOUS
 62
    7
 10
121745.77
 20
85767.072
 11
121335.46
 21
85767.072
  0
LINE
  8
0-0
  6
CONTINUOUS
 62
    7
 10
121335.46
 20
85767.072
 11
121335.46
 21
100194.47
  0
LINE
  8
0-0
  6
CONTINUOUS
 62
    7
 10
121243.38
 20
84678.515
 11
121243.38
 21
85767.072
  0
LINE
  8
0-0
  6
CONTINUOUS
 62
    7
 10
121243.38
 20
85767.072
 11
121888.1
 21
85767.072
  0
LINE
  8
0-0
  6
CONTINUOUS
 62
    7
 10
121888.1
 20
85767.072
 11
121996.97
 21
85624.725
  0
LINE
  8
0-0
  6
CONTINUOUS
 62
    7
 10
121996.97
 20
85624.725
 11
121996.97
 21
84712.019
  0
LINE
  8
0-0
  6
CONTINUOUS
 62
    7
 10
121996.97
 20
84712.019
 11
121636.91
 21
83866.299
  0
LINE
  8
0-0
  6
CONTINUOUS
 62
    7
 10
120489.75
 20
98536.54
 11
121335.46
 21
98536.54
  0
LINE
  8
0-0
  6
CONTINUOUS
 62
    7
 10
121335.46
 20
98536.54
 11
121335.46
 21
98310.46
  0
LINE
  8
0-0
  6
CONTINUOUS
 62
    7
 10
121335.46
 20
98310.46
 11
120489.75
 21
98310.46
  0
LINE
  8
0-0
  6
CONTINUOUS
 62
    7
 10
120489.75
 20
98310.46
 11
120489.75
 21
98536.54
  0
LINE
  8
0-0
  6
CONTINUOUS
 62
    7
 10
120456.25
 20
96652.514
 11
121335.46
 21
96652.514
  0
LINE
  8
0-0
  6
CONTINUOUS
 62
    7
 10
121335.46
 20
96652.514
 11
121335.46
 21
96443.18
  0
LINE
  8
0-0
  6
CONTINUOUS
 62
    7
 10
121335.46
 20
96443.18
 11
120456.25
 21
96443.18
  0
LINE
  8
0-0
  6
CONTINUOUS
 62
    7
 10
120456.25
 20
96443.18
 11
120456.25
 21
96652.514
  0
LINE
  8
0-0
  6
CONTINUOUS
 62
    7
 10
120523.25
 20
96652.514
 11
121159.63
 21
96652.514
  0
LINE
  8
0-0
  6
CONTINUOUS
 62
    7
 10
122624.97
 20
82593.538
 11
124726.7
 21
79487.001
  0
LINE
  8
0-0
  6
CONTINUOUS
 62
    7
 10
124726.7
 20
79487.001
 11
124726.7
 21
78230.986
  0
LINE
  8
0-0
  6
CONTINUOUS
 62
    7
 10
122650.08
 20
81387.774
 11
124693.21
 21
78230.986
  0
LINE
  8
0-0
  6
CONTINUOUS
 62
    7
 10
122624.97
 20
81086.323
 11
124442.01
 21
78230.986
  0
LINE
  8
0-0
  6
CONTINUOUS
 62
    7
 10
122650.08
 20
82074.38
 11
124743.44
 21
78783.628
  0
LINE
  8
0-0
  6
CONTINUOUS
 62
    7
 10
124567.58
 20
79696.335
 11
123989.84
 21
79286.04
  0
LINE
  8
0-0
  6
CONTINUOUS
 62
    7
 10
124048.43
 20
80433.2
 11
123546.04
 21
80022.906
  0
LINE
  8
0-0
  6
CONTINUOUS
 62
    7
 10
123546.04
 20
81228.67
 11
123077.13
 21
80793.255
  0
LINE
  8
0-0
  6
CONTINUOUS
 62
    7
 10
121871.37
 20
79595.854
 11
130562.98
 21
79595.854
  0
LINE
  8
0-0
  6
CONTINUOUS
 62
    7
 10
130562.98
 20
79595.854
 11
130562.98
 21
79319.543
  0
LINE
  8
0-0
  6
CONTINUOUS
 62
    7
 10
130562.98
 20
79319.543
 11
131659.88
 21
79319.543
  0
LINE
  8
0-0
  6
CONTINUOUS
 62
    7
 10
131659.88
 20
79319.543
 11
131659.88
 21
79193.933
  0
LINE
  8
0-0
  6
CONTINUOUS
 62
    7
 10
131659.88
 20
79193.933
 11
128737.56
 21
79193.933
  0
LINE
  8
0-0
  6
CONTINUOUS
 62
    7
 10
128737.56
 20
79193.933
 11
128737.56
 21
79051.576
  0
LINE
  8
0-0
  6
CONTINUOUS
 62
    7
 10
128737.56
 20
79051.576
 11
127816.47
 21
79051.576
  0
LINE
  8
0-0
  6
CONTINUOUS
 62
    7
 10
127816.47
 20
79051.576
 11
127816.47
 21
79319.543
  0
LINE
  8
0-0
  6
CONTINUOUS
 62
    7
 10
127816.47
 20
79319.543
 11
122038.83
 21
79319.543
  0
LINE
  8
0-0
  6
CONTINUOUS
 62
    7
 10
122038.83
 20
79319.543
 11
122038.83
 21
79344.653
  0
LINE
  8
0-0
  6
CONTINUOUS
 62
    7
 10
128720.84
 20
79143.683
 11
128720.84
 21
78230.986
  0
LINE
  8
0-0
  6
CONTINUOUS
 62
    7
 10
127816.47
 20
79126.946
 11
127816.47
 21
78230.986
  0
LINE
  8
0-0
  6
CONTINUOUS
 62
    7
 10
130797.43
 20
79788.442
 11
131299.82
 21
79788.442
  0
LINE
  8
0-0
  6
CONTINUOUS
 62
    7
 10
131484.05
 20
79612.601
 11
131484.05
 21
79520.494
  0
LINE
  8
0-0
  6
CONTINUOUS
 62
    7
 10
131299.82
 20
79344.653
 11
130797.43
 21
79344.653
  0
LINE
  8
0-0
  6
CONTINUOUS
 62
    7
 10
130621.58
 20
79520.494
 11
130621.58
 21
79612.601
  0
LINE
  8
0-0
  6
CONTINUOUS
 62
    7
 10
127640.64
 20
80726.268
 11
128930.14
 21
80726.268
  0
LINE
  8
0-0
  6
CONTINUOUS
 62
    7
 10
129239.96
 20
80416.454
 11
129239.96
 21
80039.642
  0
LINE
  8
0-0
  6
CONTINUOUS
 62
    7
 10
128930.14
 20
79738.211
 11
127640.64
 21
79738.211
  0
LINE
  8
0-0
  6
CONTINUOUS
 62
    7
 10
127330.83
 20
80039.642
 11
127330.83
 21
80416.454
  0
LINE
  8
0-0
  6
CONTINUOUS
 62
    7
 10
127833.24
 20
80835.122
 11
128034.2
 21
80835.122
  0
LINE
  8
0-0
  6
CONTINUOUS
 62
    7
 10
128034.2
 20
80835.122
 11
128034.2
 21
79595.854
  0
LINE
  8
0-0
  6
CONTINUOUS
 62
    7
 10
128034.2
 20
79595.854
 11
127833.24
 21
79595.854
  0
LINE
  8
0-0
  6
CONTINUOUS
 62
    7
 10
127833.24
 20
79595.854
 11
127833.24
 21
80835.122
  0
LINE
  8
0-0
  6
CONTINUOUS
 62
    7
 10
128536.6
 20
80835.122
 11
128737.56
 21
80835.122
  0
LINE
  8
0-0
  6
CONTINUOUS
 62
    7
 10
128737.56
 20
80835.122
 11
128737.56
 21
79629.358
  0
LINE
  8
0-0
  6
CONTINUOUS
 62
    7
 10
128737.56
 20
79629.358
 11
128536.6
 21
79629.358
  0
LINE
  8
0-0
  6
CONTINUOUS
 62
    7
 10
128536.6
 20
79629.358
 11
128536.6
 21
80835.122
  0
LINE
  8
0-0
  6
CONTINUOUS
 62
    7
 10
131157.49
 20
75551.49
 11
131986.44
 21
75551.49
  0
LINE
  8
0-0
  6
CONTINUOUS
 62
    7
 10
132162.29
 20
75367.276
 11
132162.29
 21
75266.796
  0
LINE
  8
0-0
  6
CONTINUOUS
 62
    7
 10
131986.44
 20
75082.582
 11
131157.49
 21
75082.582
  0
LINE
  8
0-0
  6
CONTINUOUS
 62
    7
 10
130981.64
 20
75266.796
 11
130981.64
 21
75367.276
  0
LINE
  8
0-0
  6
CONTINUOUS
 62
    7
 10
131174.23
 20
67127.832
 11
131358.45
 21
67127.832
  0
LINE
  8
0-0
  6
CONTINUOUS
 62
    7
 10
131358.45
 20
67127.832
 11
131358.45
 21
66424.465
  0
LINE
  8
0-0
  6
CONTINUOUS
 62
    7
 10
131358.45
 20
66424.465
 11
131174.23
 21
66424.465
  0
LINE
  8
0-0
  6
CONTINUOUS
 62
    7
 10
131174.23
 20
66424.465
 11
131174.23
 21
67127.832
  0
LINE
  8
0-0
  6
CONTINUOUS
 62
    7
 10
131358.45
 20
67002.237
 11
131467.29
 21
67002.237
  0
LINE
  8
0-0
  6
CONTINUOUS
 62
    7
 10
131467.29
 20
67002.237
 11
131467.29
 21
66608.684
  0
LINE
  8
0-0
  6
CONTINUOUS
 62
    7
 10
131467.29
 20
66608.684
 11
131358.45
 21
66608.684
  0
LINE
  8
0-0
  6
CONTINUOUS
 62
    7
 10
131358.45
 20
66608.684
 11
131358.45
 21
67002.237
  0
LINE
  8
0-0
  6
CONTINUOUS
 62
    7
 10
131467.29
 20
66968.733
 11
131467.29
 21
67127.832
  0
LINE
  8
0-0
  6
CONTINUOUS
 62
    7
 10
131467.29
 20
67127.832
 11
132329.76
 21
67052.472
  0
LINE
  8
0-0
  6
CONTINUOUS
 62
    7
 10
132329.76
 20
67052.472
 11
132505.59
 21
66910.125
  0
LINE
  8
0-0
  6
CONTINUOUS
 62
    7
 10
132505.59
 20
66910.125
 11
132564.22
 21
66801.271
  0
LINE
  8
0-0
  6
CONTINUOUS
 62
    7
 10
132564.22
 20
66801.271
 11
132455.36
 21
66717.533
  0
LINE
  8
0-0
  6
CONTINUOUS
 62
    7
 10
132455.36
 20
66717.533
 11
132220.89
 21
66625.43
  0
LINE
  8
0-0
  6
CONTINUOUS
 62
    7
 10
132220.89
 20
66625.43
 11
132112.04
 21
66566.817
  0
LINE
  8
0-0
  6
CONTINUOUS
 62
    7
 10
132112.04
 20
66566.817
 11
131467.29
 21
66424.465
  0
LINE
  8
0-0
  6
CONTINUOUS
 62
    7
 10
131467.29
 20
66424.465
 11
131467.29
 21
66968.733
  0
LINE
  8
0-0
  6
CONTINUOUS
 62
    7
 10
131751.99
 20
67111.086
 11
131827.38
 21
67831.2
  0
LINE
  8
0-0
  6
CONTINUOUS
 62
    7
 10
131827.38
 20
67831.2
 11
132003.2
 21
68115.894
  0
LINE
  8
0-0
  6
CONTINUOUS
 62
    7
 10
132003.2
 20
68115.894
 11
132204.16
 21
68400.588
  0
LINE
  8
0-0
  6
CONTINUOUS
 62
    7
 10
132204.16
 20
68400.588
 11
132271.13
 21
67864.693
  0
LINE
  8
0-0
  6
CONTINUOUS
 62
    7
 10
132271.13
 20
67864.693
 11
132271.13
 21
67052.472
  0
LINE
  8
0-0
  6
CONTINUOUS
 62
    7
 10
131718.51
 20
66483.088
 11
131927.84
 21
65905.316
  0
LINE
  8
0-0
  6
CONTINUOUS
 62
    7
 10
131927.84
 20
65905.316
 11
132162.29
 21
65277.304
  0
LINE
  8
0-0
  6
CONTINUOUS
 62
    7
 10
132162.29
 20
65277.304
 11
132313
 21
65654.11
  0
LINE
  8
0-0
  6
CONTINUOUS
 62
    7
 10
132313
 20
65654.11
 11
132271.13
 21
66658.919
  0
LINE
  8
0-0
  6
CONTINUOUS
 62
    7
 10
133275.97
 20
69246.303
 11
133711.38
 21
69246.303
  0
LINE
  8
0-0
  6
CONTINUOUS
 62
    7
 10
133711.38
 20
69246.303
 11
133711.38
 21
68542.936
  0
LINE
  8
0-0
  6
CONTINUOUS
 62
    7
 10
133711.38
 20
68542.936
 11
133275.97
 21
68542.936
  0
LINE
  8
0-0
  6
CONTINUOUS
 62
    7
 10
133275.97
 20
68542.936
 11
133275.97
 21
69246.303
  0
LINE
  8
0-0
  6
CONTINUOUS
 62
    7
 10
66372.344
 20
93688.314
 11
66372.344
 21
91268.402
  0
LINE
  8
0-0
  6
CONTINUOUS
 62
    7
 10
66213.235
 20
91301.905
 11
66606.798
 21
91301.905
  0
LINE
  8
0-0
  6
CONTINUOUS
 62
    7
 10
66606.798
 20
91301.905
 11
66606.798
 21
75584.993
  0
LINE
  8
0-0
  6
CONTINUOUS
 62
    7
 10
66606.798
 20
75584.993
 11
66213.235
 21
75584.993
  0
LINE
  8
0-0
  6
CONTINUOUS
 62
    7
 10
66213.235
 20
75584.993
 11
66213.235
 21
91301.905
  0
LINE
  8
0-0
  6
CONTINUOUS
 62
    7
 10
65568.501
 20
90799.503
 11
66213.235
 21
90799.503
  0
LINE
  8
0-0
  6
CONTINUOUS
 62
    7
 10
66213.235
 20
90799.503
 11
66213.235
 21
90657.156
  0
LINE
  8
0-0
  6
CONTINUOUS
 62
    7
 10
66213.235
 20
90657.156
 11
65568.501
 21
90657.156
  0
LINE
  8
0-0
  6
CONTINUOUS
 62
    7
 10
65568.501
 20
90657.156
 11
65568.501
 21
90799.503
  0
LINE
  8
0-0
  6
CONTINUOUS
 62
    7
 10
65601.985
 20
89468.119
 11
66213.235
 21
89468.119
  0
LINE
  8
0-0
  6
CONTINUOUS
 62
    7
 10
66213.235
 20
89468.119
 11
66213.235
 21
89325.772
  0
LINE
  8
0-0
  6
CONTINUOUS
 62
    7
 10
66213.235
 20
89325.772
 11
65601.985
 21
89325.772
  0
LINE
  8
0-0
  6
CONTINUOUS
 62
    7
 10
65601.985
 20
89325.772
 11
65601.985
 21
89468.119
  0
LINE
  8
0-0
  6
CONTINUOUS
 62
    7
 10
66246.744
 20
89074.571
 11
62260.993
 21
75660.344
  0
LINE
  8
0-0
  6
CONTINUOUS
 62
    7
 10
68407.081
 20
82878.242
 11
102872.09
 21
94718.257
  0
LINE
  8
0-0
  6
CONTINUOUS
 62
    7
 10
102746.48
 20
94408.433
 11
68549.438
 21
82735.885
  0
LINE
  8
0-0
  6
CONTINUOUS
 62
    7
 10
56675.915
 20
76104.132
 11
57396.034
 21
76104.132
  0
LINE
  8
0-0
  6
CONTINUOUS
 62
    7
 10
57571.87
 20
75928.291
 11
57571.87
 21
75911.545
  0
LINE
  8
0-0
  6
CONTINUOUS
 62
    7
 10
57396.034
 20
75727.341
 11
57035.98
 21
75727.341
  0
LINE
  8
0-0
  6
CONTINUOUS
 62
    7
 10
56500.08
 20
75911.545
 11
56500.08
 21
75928.291
  0
LINE
  8
0-0
  6
CONTINUOUS
 62
    7
 10
57035.98
 20
75727.341
 11
56675.915
 21
75727.341
  0
LINE
  8
0-0
  6
CONTINUOUS
 62
    7
 10
57035.98
 20
75476.13
 11
56876.886
 21
75492.886
  0
LINE
  8
0-0
  6
CONTINUOUS
 62
    7
 10
56031.166
 20
75584.993
 11
55972.548
 21
75584.993
  0
LINE
  8
0-0
  6
CONTINUOUS
 62
    7
 10
55972.548
 20
75584.993
 11
55972.548
 21
75693.837
  0
LINE
  8
0-0
  6
CONTINUOUS
 62
    7
 10
55972.548
 20
75693.837
 11
55972.548
 21
75584.993
  0
LINE
  8
0-0
  6
CONTINUOUS
 62
    7
 10
56876.886
 20
75492.886
 11
56533.563
 21
75551.49
  0
LINE
  8
0-0
  6
CONTINUOUS
 62
    7
 10
56140.025
 20
75584.993
 11
56031.166
 21
75584.993
  0
LINE
  8
0-0
  6
CONTINUOUS
 62
    7
 10
56533.563
 20
75551.49
 11
56140.025
 21
75584.993
  0
LINE
  8
0-0
  6
CONTINUOUS
 62
    7
 10
57379.283
 20
75442.636
 11
57035.98
 21
75476.13
  0
LINE
  8
0-0
  6
CONTINUOUS
 62
    7
 10
57596.995
 20
75409.143
 11
57379.283
 21
75442.636
  0
LINE
  8
0-0
  6
CONTINUOUS
 62
    7
 10
59514.5
 20
75208.182
 11
57596.995
 21
75409.143
  0
LINE
  8
0-0
  6
CONTINUOUS
 62
    7
 10
59732.227
 20
75174.689
 11
59514.5
 21
75208.182
  0
LINE
  8
0-0
  6
CONTINUOUS
 62
    7
 10
61415.273
 20
74973.728
 11
59732.227
 21
75174.689
  0
LINE
  8
0-0
  6
CONTINUOUS
 62
    7
 10
61632.986
 20
74956.981
 11
61415.273
 21
74973.728
  0
LINE
  8
0-0
  6
CONTINUOUS
 62
    7
 10
82683.755
 20
73793.074
 11
71748.073
 21
73793.074
  0
LINE
  8
0-0
  6
CONTINUOUS
 62
    7
 10
67812.563
 20
74906.741
 11
64957.236
 21
74906.741
  0
LINE
  8
0-0
  6
CONTINUOUS
 62
    7
 10
64957.236
 20
74906.741
 11
61917.675
 21
74906.741
  0
LINE
  8
0-0
  6
CONTINUOUS
 62
    7
 10
61917.675
 20
74906.741
 11
61632.986
 21
74956.981
  0
LINE
  8
0-0
  6
CONTINUOUS
 62
    7
 10
71748.073
 20
73793.074
 11
71689.469
 21
73793.074
  0
LINE
  8
0-0
  6
CONTINUOUS
 62
    7
 10
71689.469
 20
73793.074
 11
70450.212
 21
74002.418
  0
LINE
  8
0-0
  6
CONTINUOUS
 62
    7
 10
70450.212
 20
74002.418
 11
69336.534
 21
74345.716
  0
LINE
  8
0-0
  6
CONTINUOUS
 62
    7
 10
69336.534
 20
74345.716
 11
69210.939
 21
74421.076
  0
LINE
  8
0-0
  6
CONTINUOUS
 62
    7
 10
68440.594
 20
74781.141
 11
68097.267
 21
74906.741
  0
LINE
  8
0-0
  6
CONTINUOUS
 62
    7
 10
68097.267
 20
74906.741
 11
67812.563
 21
74906.741
  0
LINE
  8
0-0
  6
CONTINUOUS
 62
    7
 10
69210.939
 20
74421.076
 11
68658.282
 21
74689.034
  0
LINE
  8
0-0
  6
CONTINUOUS
 62
    7
 10
68658.282
 20
74689.034
 11
68440.594
 21
74781.141
  0
LINE
  8
0-0
  6
CONTINUOUS
 62
    7
 10
136407.62
 20
75141.195
 11
136566.72
 21
75141.195
  0
LINE
  8
0-0
  6
CONTINUOUS
 62
    7
 10
136457.86
 20
73106.453
 11
136566.72
 21
73558.62
  0
LINE
  8
0-0
  6
CONTINUOUS
 62
    7
 10
136566.72
 20
73558.62
 11
136566.72
 21
74345.716
  0
LINE
  8
0-0
  6
CONTINUOUS
 62
    7
 10
136566.72
 20
74345.716
 11
136566.72
 21
76037.155
  0
LINE
  8
0-0
  6
CONTINUOUS
 62
    7
 10
131969.71
 20
76305.103
 11
131986.44
 21
76355.333
  0
LINE
  8
0-0
  6
CONTINUOUS
 62
    7
 10
133116.85
 20
76355.333
 11
133150.37
 21
76305.103
  0
LINE
  8
0-0
  6
CONTINUOUS
 62
    7
 10
136566.72
 20
76037.155
 11
136566.72
 21
76480.943
  0
LINE
  8
0-0
  6
CONTINUOUS
 62
    7
 10
136566.72
 20
76480.943
 11
133368.06
 21
76380.463
  0
LINE
  8
0-0
  6
CONTINUOUS
 62
    7
 10
132179.06
 20
76648.42
 11
132254.4
 21
76757.264
  0
LINE
  8
0-0
  6
CONTINUOUS
 62
    7
 10
132254.4
 20
76757.264
 11
132915.91
 21
76757.264
  0
LINE
  8
0-0
  6
CONTINUOUS
 62
    7
 10
132915.91
 20
76757.264
 11
132974.51
 21
76648.42
  0
LINE
  8
0-0
  6
CONTINUOUS
 62
    7
 10
131986.44
 20
76355.333
 11
132179.06
 21
76648.42
  0
LINE
  8
0-0
  6
CONTINUOUS
 62
    7
 10
132974.51
 20
76648.42
 11
133116.85
 21
76355.333
  0
LINE
  8
0-0
  6
CONTINUOUS
 62
    7
 10
133368.06
 20
76380.463
 11
133024.77
 21
76355.333
  0
LINE
  8
0-0
  6
CONTINUOUS
 62
    7
 10
53946.174
 20
77259.676
 11
54842.134
 21
76698.651
  0
LINE
  8
0-0
  6
CONTINUOUS
 62
    7
 10
54842.134
 20
76698.651
 11
55972.548
 21
75350.529
  0
LINE
  8
0-0
  6
CONTINUOUS
 62
    7
 10
55972.548
 20
75350.529
 11
56642.417
 21
74345.716
  0
LINE
  8
0-0
  6
CONTINUOUS
 62
    7
 10
56642.417
 20
74345.716
 11
57086.22
 21
73215.302
  0
LINE
  8
0-0
  6
CONTINUOUS
 62
    7
 10
57086.22
 20
73215.302
 11
57320.674
 21
71992.791
  0
LINE
  8
0-0
  6
CONTINUOUS
 62
    7
 10
57320.674
 20
71992.791
 11
57220.189
 21
70309.735
  0
LINE
  8
0-0
  6
CONTINUOUS
 62
    7
 10
57220.189
 20
70309.735
 11
56876.886
 21
68727.15
  0
LINE
  8
0-0
  6
CONTINUOUS
 62
    7
 10
56876.886
 20
68727.15
 11
56315.861
 21
67831.2
  0
LINE
  8
0-0
  6
CONTINUOUS
 62
    7
 10
56315.861
 20
67831.2
 11
55872.072
 21
67052.472
  0
LINE
  8
0-0
  6
CONTINUOUS
 62
    7
 10
55872.072
 20
67052.472
 11
55746.467
 21
66483.088
  0
LINE
  8
0-0
  6
CONTINUOUS
 62
    7
 10
55746.467
 20
66483.088
 11
55972.548
 21
65813.204
  0
LINE
  8
0-0
  6
CONTINUOUS
 62
    7
 10
55972.548
 20
65813.204
 11
56533.563
 21
65026.098
  0
LINE
  8
0-0
  6
CONTINUOUS
 62
    7
 10
56533.563
 20
65026.098
 11
57663.977
 21
64917.25
  0
LINE
  8
0-0
  6
CONTINUOUS
 62
    7
 10
57663.977
 20
64917.25
 11
58777.649
 21
64808.401
  0
LINE
  8
0-0
  6
CONTINUOUS
 62
    7
 10
58777.649
 20
64808.401
 11
130906.28
 21
64808.401
  0
LINE
  8
0-0
  6
CONTINUOUS
 62
    7
 10
131500.78
 20
65260.557
 11
131299.82
 21
65478.26
  0
LINE
  8
0-0
  6
CONTINUOUS
 62
    7
 10
131299.82
 20
65478.26
 11
131174.23
 21
65712.719
  0
LINE
  8
0-0
  6
CONTINUOUS
 62
    7
 10
131174.23
 20
65712.719
 11
131174.23
 21
66156.512
  0
LINE
  8
0-0
  6
CONTINUOUS
 62
    7
 10
131174.23
 20
66156.512
 11
131174.23
 21
67613.492
  0
LINE
  8
0-0
  6
CONTINUOUS
 62
    7
 10
131174.23
 20
67613.492
 11
131299.82
 21
68166.139
  0
LINE
  8
0-0
  6
CONTINUOUS
 62
    7
 10
131299.82
 20
68166.139
 11
131626.38
 21
68727.15
  0
LINE
  8
0-0
  6
CONTINUOUS
 62
    7
 10
131626.38
 20
68727.15
 11
131969.71
 21
68961.614
  0
LINE
  8
0-0
  6
CONTINUOUS
 62
    7
 10
131969.71
 20
68961.614
 11
134557.08
 21
69405.402
  0
LINE
  8
0-0
  6
CONTINUOUS
 62
    7
 10
134557.08
 20
69405.402
 11
135344.21
 21
70075.271
  0
LINE
  8
0-0
  6
CONTINUOUS
 62
    7
 10
135344.21
 20
70075.271
 11
135796.37
 21
70862.377
  0
LINE
  8
0-0
  6
CONTINUOUS
 62
    7
 10
135796.37
 20
70862.377
 11
136240.13
 21
71992.791
  0
LINE
  8
0-0
  6
CONTINUOUS
 62
    7
 10
136240.13
 20
71992.791
 11
136457.86
 21
73106.453
  0
LINE
  8
0-0
  6
CONTINUOUS
 62
    7
 10
132773.56
 20
65260.557
 11
132773.56
 21
68400.588
  0
LINE
  8
0-0
  6
CONTINUOUS
 62
    7
 10
132773.56
 20
68400.588
 11
132899.17
 21
68542.936
  0
LINE
  8
0-0
  6
CONTINUOUS
 62
    7
 10
132899.17
 20
68542.936
 11
135469.79
 21
68542.936
  0
LINE
  8
0-0
  6
CONTINUOUS
 62
    7
 10
135469.79
 20
68542.936
 11
135670.77
 21
68367.105
  0
LINE
  8
0-0
  6
CONTINUOUS
 62
    7
 10
135670.77
 20
68367.105
 11
135670.77
 21
65277.304
  0
LINE
  8
0-0
  6
CONTINUOUS
 62
    7
 10
135670.77
 20
65277.304
 11
135469.79
 21
65026.098
  0
LINE
  8
0-0
  6
CONTINUOUS
 62
    7
 10
135469.79
 20
65026.098
 11
134448.23
 21
65026.098
  0
LINE
  8
0-0
  6
CONTINUOUS
 62
    7
 10
130906.28
 20
64808.401
 11
131911.11
 21
64808.401
  0
LINE
  8
0-0
  6
CONTINUOUS
 62
    7
 10
131626.38
 20
65134.962
 11
131500.78
 21
65260.557
  0
LINE
  8
0-0
  6
CONTINUOUS
 62
    7
 10
132790.28
 20
65201.949
 11
132773.56
 21
65227.064
  0
LINE
  8
0-0
  6
CONTINUOUS
 62
    7
 10
132773.56
 20
65227.064
 11
132773.56
 21
65260.557
  0
LINE
  8
0-0
  6
CONTINUOUS
 62
    7
 10
134448.23
 20
65026.098
 11
134213.77
 21
65026.098
  0
LINE
  8
0-0
  6
CONTINUOUS
 62
    7
 10
134213.77
 20
65026.098
 11
133711.38
 21
65026.098
  0
LINE
  8
0-0
  6
CONTINUOUS
 62
    7
 10
131911.11
 20
64808.401
 11
132706.58
 21
64808.401
  0
LINE
  8
0-0
  6
CONTINUOUS
 62
    7
 10
133711.38
 20
64808.401
 11
133761.61
 21
64808.401
  0
LINE
  8
0-0
  6
CONTINUOUS
 62
    7
 10
133761.61
 20
64808.401
 11
133761.61
 21
65026.098
  0
LINE
  8
0-0
  6
CONTINUOUS
 62
    7
 10
133761.61
 20
65026.098
 11
133711.38
 21
65026.098
  0
LINE
  8
0-0
  6
CONTINUOUS
 62
    7
 10
132706.58
 20
65026.098
 11
132078.56
 21
65026.098
  0
LINE
  8
0-0
  6
CONTINUOUS
 62
    7
 10
132078.56
 20
65026.098
 11
131626.38
 21
65134.962
  0
LINE
  8
0-0
  6
CONTINUOUS
 62
    7
 10
132941.03
 20
65076.353
 11
132790.28
 21
65201.949
  0
LINE
  8
0-0
  6
CONTINUOUS
 62
    7
 10
133711.38
 20
65026.098
 11
133008.01
 21
65026.098
  0
LINE
  8
0-0
  6
CONTINUOUS
 62
    7
 10
133008.01
 20
65026.098
 11
132941.03
 21
65076.353
  0
LINE
  8
0-0
  6
CONTINUOUS
 62
    7
 10
132706.58
 20
64808.401
 11
133711.38
 21
64808.401
  0
LINE
  8
0-0
  6
CONTINUOUS
 62
    7
 10
133711.38
 20
65026.098
 11
132706.58
 21
65026.098
  0
LINE
  8
0-0
  6
CONTINUOUS
 62
    7
 10
133024.77
 20
76355.333
 11
131299.82
 21
76305.103
  0
LINE
  8
0-0
  6
CONTINUOUS
 62
    7
 10
129775.88
 20
78247.733
 11
130713.68
 21
78247.733
  0
LINE
  8
0-0
  6
CONTINUOUS
 62
    7
 10
130713.68
 20
78247.733
 11
130981.64
 21
77937.918
  0
LINE
  8
0-0
  6
CONTINUOUS
 62
    7
 10
130981.64
 20
77937.918
 11
130085.7
 21
77937.918
  0
LINE
  8
0-0
  6
CONTINUOUS
 62
    7
 10
130085.7
 20
77937.918
 11
129884.71
 21
77829.065
  0
LINE
  8
0-0
  6
CONTINUOUS
 62
    7
 10
129884.71
 20
77829.065
 11
129884.71
 21
77385.267
  0
LINE
  8
0-0
  6
CONTINUOUS
 62
    7
 10
129884.71
 20
77385.267
 11
130671.82
 21
76556.304
  0
LINE
  8
0-0
  6
CONTINUOUS
 62
    7
 10
131015.14
 20
76288.366
 11
130671.82
 21
76288.366
  0
LINE
  8
0-0
  6
CONTINUOUS
 62
    7
 10
131299.82
 20
76305.103
 11
131015.14
 21
76288.366
  0
LINE
  8
0-0
  6
CONTINUOUS
 62
    7
 10
130856.05
 20
76355.333
 11
130964.87
 21
76254.863
  0
LINE
  8
0-0
  6
CONTINUOUS
 62
    7
 10
130671.82
 20
76556.304
 11
130856.05
 21
76355.333
  0
LINE
  8
0-0
  6
CONTINUOUS
 62
    7
 10
132974.51
 20
76355.333
 11
133711.38
 21
76355.333
  0
LINE
  8
0-0
  6
CONTINUOUS
 62
    7
 10
115641.54
 20
74563.423
 11
136407.62
 21
75141.195
  0
LINE
  8
0-0
  6
CONTINUOUS
 62
    7
 10
115515.94
 20
74739.264
 11
115515.94
 21
84586.408
  0
LINE
  8
0-0
  6
CONTINUOUS
 62
    7
 10
115515.94
 20
84586.408
 11
115716.92
 21
84678.515
  0
LINE
  8
0-0
  6
CONTINUOUS
 62
    7
 10
115716.92
 20
84678.515
 11
121494.56
 21
84678.515
  0
LINE
  8
0-0
  6
CONTINUOUS
 62
    7
 10
121494.56
 20
84678.515
 11
121636.91
 21
84569.672
  0
LINE
  8
0-0
  6
CONTINUOUS
 62
    7
 10
121636.91
 20
84569.672
 11
121636.91
 21
81387.774
  0
LINE
  8
0-0
  6
CONTINUOUS
 62
    7
 10
121636.91
 20
81387.774
 11
122733.81
 21
81387.774
  0
LINE
  8
0-0
  6
CONTINUOUS
 62
    7
 10
122733.81
 20
81387.774
 11
122985.02
 21
85482.378
  0
LINE
  8
0-0
  6
CONTINUOUS
 62
    7
 10
122985.02
 20
85482.378
 11
123127.36
 21
85666.582
  0
LINE
  8
0-0
  6
CONTINUOUS
 62
    7
 10
123127.36
 20
85666.582
 11
126292.52
 21
85515.862
  0
LINE
  8
0-0
  6
CONTINUOUS
 62
    7
 10
126292.52
 20
85515.862
 11
126543.71
 21
85323.274
  0
LINE
  8
0-0
  6
CONTINUOUS
 62
    7
 10
126543.71
 20
85323.274
 11
126870.27
 21
78230.986
  0
LINE
  8
0-0
  6
CONTINUOUS
 62
    7
 10
126870.27
 20
78230.986
 11
129775.88
 21
78247.733
  0
LINE
  8
0-0
  6
CONTINUOUS
 62
    7
 10
111027.79
 20
74546.687
 11
115298.23
 21
74546.687
  0
LINE
  8
0-0
  6
CONTINUOUS
 62
    7
 10
111027.79
 20
74546.687
 11
111027.79
 21
74739.264
  0
LINE
  8
0-0
  6
CONTINUOUS
 62
    7
 10
115248.01
 20
74546.687
 11
115641.54
 21
74563.423
  0
LINE
  8
0-0
  6
CONTINUOUS
 62
    7
 10
115515.94
 20
74705.78
 11
115515.94
 21
74739.264
  0
LINE
  8
0-0
  6
CONTINUOUS
 62
    7
 10
130671.82
 20
76288.366
 11
116143.96
 21
75693.837
  0
LINE
  8
0-0
  6
CONTINUOUS
 62
    7
 10
116143.96
 20
75693.837
 11
115800.65
 21
74797.887
  0
LINE
  8
0-0
  6
CONTINUOUS
 62
    7
 10
115800.65
 20
74797.887
 11
115105.65
 21
74513.183
  0
LINE
  8
0-0
  6
CONTINUOUS
 62
    7
 10
114167.83
 20
74186.632
 11
112551.75
 21
73793.074
  0
LINE
  8
0-0
  6
CONTINUOUS
 62
    7
 10
112551.75
 20
73793.074
 11
82683.755
 21
73793.074
  0
LINE
  8
0-0
  6
CONTINUOUS
 62
    7
 10
115105.65
 20
74513.183
 11
114980.04
 21
74454.58
  0
LINE
  8
0-0
  6
CONTINUOUS
 62
    7
 10
114452.53
 20
74236.872
 11
114167.83
 21
74186.632
  0
LINE
  8
0-0
  6
CONTINUOUS
 62
    7
 10
114980.04
 20
74454.58
 11
114452.53
 21
74236.872
  0
LINE
  8
0-0
  6
CONTINUOUS
 62
    7
 10
79376.261
 20
74546.687
 11
111027.79
 21
74546.687
  0
LINE
  8
0-0
  6
CONTINUOUS
 62
    7
 10
111027.79
 20
74739.264
 11
111027.79
 21
75141.195
  0
LINE
  8
0-0
  6
CONTINUOUS
 62
    7
 10
111027.79
 20
75141.195
 11
79233.919
 21
75141.195
  0
LINE
  8
0-0
  6
CONTINUOUS
 62
    7
 10
79233.919
 20
75141.195
 11
79233.919
 21
74689.034
  0
LINE
  8
0-0
  6
CONTINUOUS
 62
    7
 10
73347.415
 20
74546.687
 11
73205.058
 21
74546.687
  0
LINE
  8
0-0
  6
CONTINUOUS
 62
    7
 10
78137.004
 20
74546.687
 11
79376.261
 21
74546.687
  0
LINE
  8
0-0
  6
CONTINUOUS
 62
    7
 10
79233.919
 20
74689.034
 11
79233.919
 21
74546.687
  0
LINE
  8
0-0
  6
CONTINUOUS
 62
    7
 10
68155.89
 20
76338.596
 11
67862.813
 21
76338.596
  0
LINE
  8
0-0
  6
CONTINUOUS
 62
    7
 10
67862.813
 20
76338.596
 11
67862.813
 21
76589.787
  0
LINE
  8
0-0
  6
CONTINUOUS
 62
    7
 10
67862.813
 20
76338.596
 11
67151.072
 21
76338.596
  0
LINE
  8
0-0
  6
CONTINUOUS
 62
    7
 10
67151.072
 20
76338.596
 11
67151.072
 21
75601.73
  0
LINE
  8
0-0
  6
CONTINUOUS
 62
    7
 10
67151.072
 20
75601.73
 11
68155.89
 21
75601.73
  0
LINE
  8
0-0
  6
CONTINUOUS
 62
    7
 10
78137.004
 20
74689.034
 11
78137.004
 21
74546.687
  0
LINE
  8
0-0
  6
CONTINUOUS
 62
    7
 10
78137.004
 20
74546.687
 11
73305.538
 21
74546.687
  0
LINE
  8
0-0
  6
CONTINUOUS
 62
    7
 10
73305.538
 20
74546.687
 11
73305.538
 21
74689.034
  0
LINE
  8
0-0
  6
CONTINUOUS
 62
    7
 10
68155.89
 20
75601.73
 11
69269.548
 21
75601.73
  0
LINE
  8
0-0
  6
CONTINUOUS
 62
    7
 10
73305.538
 20
74689.034
 11
73305.538
 21
74940.235
  0
LINE
  8
0-0
  6
CONTINUOUS
 62
    7
 10
73305.538
 20
74940.235
 11
78137.004
 21
74940.235
  0
LINE
  8
0-0
  6
CONTINUOUS
 62
    7
 10
78137.004
 20
74940.235
 11
78137.004
 21
74689.034
  0
LINE
  8
0-0
  6
CONTINUOUS
 62
    7
 10
73539.988
 20
76338.596
 11
68155.89
 21
76338.596
  0
LINE
  8
0-0
  6
CONTINUOUS
 62
    7
 10
69269.548
 20
75601.73
 11
73539.988
 21
75601.73
  0
LINE
  8
0-0
  6
CONTINUOUS
 62
    7
 10
74729.02
 20
76338.596
 11
73539.988
 21
76338.596
  0
LINE
  8
0-0
  6
CONTINUOUS
 62
    7
 10
74168.005
 20
75852.941
 11
74444.326
 21
76003.652
  0
LINE
  8
0-0
  6
CONTINUOUS
 62
    7
 10
74444.326
 20
76003.652
 11
74444.326
 21
76305.103
  0
LINE
  8
0-0
  6
CONTINUOUS
 62
    7
 10
74729.02
 20
75727.341
 11
73900.047
 21
75727.341
  0
LINE
  8
0-0
  6
CONTINUOUS
 62
    7
 10
73900.047
 20
75727.341
 11
73883.32
 21
75727.341
  0
LINE
  8
0-0
  6
CONTINUOUS
 62
    7
 10
73539.988
 20
75601.73
 11
73707.45
 21
75601.73
  0
LINE
  8
0-0
  6
CONTINUOUS
 62
    7
 10
73707.45
 20
75601.73
 11
74168.005
 21
75852.941
  0
LINE
  8
0-0
  6
CONTINUOUS
 62
    7
 10
78178.856
 20
75534.743
 11
78178.856
 21
75082.582
  0
LINE
  8
0-0
  6
CONTINUOUS
 62
    7
 10
78178.856
 20
75082.582
 11
73347.415
 21
75082.582
  0
LINE
  8
0-0
  6
CONTINUOUS
 62
    7
 10
73347.415
 20
75082.582
 11
73347.415
 21
75601.73
  0
LINE
  8
0-0
  6
CONTINUOUS
 62
    7
 10
73347.415
 20
75601.73
 11
73380.899
 21
75601.73
  0
LINE
  8
0-0
  6
CONTINUOUS
 62
    7
 10
73380.899
 20
75601.73
 11
73347.415
 21
75601.73
  0
LINE
  8
0-0
  6
CONTINUOUS
 62
    7
 10
67862.813
 20
76589.787
 11
67862.813
 21
80073.146
  0
LINE
  8
0-0
  6
CONTINUOUS
 62
    7
 10
67862.813
 20
80073.146
 11
78337.969
 21
80073.146
  0
LINE
  8
0-0
  6
CONTINUOUS
 62
    7
 10
78337.969
 20
80073.146
 11
78790.141
 21
77636.467
  0
LINE
  8
0-0
  6
CONTINUOUS
 62
    7
 10
78790.141
 20
77636.467
 11
78790.141
 21
76338.596
  0
LINE
  8
0-0
  6
CONTINUOUS
 62
    7
 10
78790.141
 20
76338.596
 11
78698.019
 21
76338.596
  0
LINE
  8
0-0
  6
CONTINUOUS
 62
    7
 10
77349.902
 20
76338.596
 11
74729.02
 21
76338.596
  0
LINE
  8
0-0
  6
CONTINUOUS
 62
    7
 10
77349.902
 20
75727.341
 11
74729.02
 21
75727.341
  0
LINE
  8
0-0
  6
CONTINUOUS
 62
    7
 10
78622.664
 20
76338.596
 11
78622.664
 21
75727.341
  0
LINE
  8
0-0
  6
CONTINUOUS
 62
    7
 10
78622.664
 20
75727.341
 11
78321.203
 21
75727.341
  0
LINE
  8
0-0
  6
CONTINUOUS
 62
    7
 10
78178.856
 20
75727.341
 11
78178.856
 21
75534.743
  0
LINE
  8
0-0
  6
CONTINUOUS
 62
    7
 10
78698.019
 20
76338.596
 11
77349.902
 21
76338.596
  0
LINE
  8
0-0
  6
CONTINUOUS
 62
    7
 10
78321.203
 20
75727.341
 11
77349.902
 21
75727.341
  0
LINE
  8
0-0
  6
CONTINUOUS
 62
    7
 10
69160.699
 20
75534.743
 11
67109.19
 21
75534.743
  0
LINE
  8
0-0
  6
CONTINUOUS
 62
    7
 10
67109.19
 20
75534.743
 11
62763.385
 21
75643.597
  0
LINE
  8
0-0
  6
CONTINUOUS
 62
    7
 10
62763.385
 20
75643.597
 11
61867.44
 21
75836.184
  0
LINE
  8
0-0
  6
CONTINUOUS
 62
    7
 10
61867.44
 20
75836.184
 11
60937.987
 21
76288.366
  0
LINE
  8
0-0
  6
CONTINUOUS
 62
    7
 10
60937.987
 20
76288.366
 11
60268.113
 21
76732.154
  0
LINE
  8
0-0
  6
CONTINUOUS
 62
    7
 10
60268.113
 20
76732.154
 11
59841.071
 21
77008.465
  0
LINE
  8
0-0
  6
CONTINUOUS
 62
    7
 10
59841.071
 20
77008.465
 11
53946.174
 21
77343.41
  0
LINE
  8
0-0
  6
CONTINUOUS
 62
    7
 10
53946.174
 20
77343.41
 11
53946.174
 21
77242.919
  0
LINE
  8
0-0
  6
CONTINUOUS
 62
    7
 10
69269.548
 20
75459.383
 11
69210.939
 21
75534.743
  0
LINE
  8
0-0
  6
CONTINUOUS
 62
    7
 10
69210.939
 20
75534.743
 11
69160.699
 21
75534.743
  0
LINE
  8
0-0
  6
CONTINUOUS
 62
    7
 10
73205.058
 20
74546.687
 11
71965.79
 21
74546.687
  0
LINE
  8
0-0
  6
CONTINUOUS
 62
    7
 10
70684.666
 20
74797.887
 11
69964.542
 21
74990.475
  0
LINE
  8
0-0
  6
CONTINUOUS
 62
    7
 10
69964.542
 20
74990.475
 11
69395.148
 21
75283.542
  0
LINE
  8
0-0
  6
CONTINUOUS
 62
    7
 10
69395.148
 20
75283.542
 11
69269.548
 21
75459.383
  0
LINE
  8
0-0
  6
CONTINUOUS
 62
    7
 10
71965.79
 20
74546.687
 11
71706.221
 21
74546.687
  0
LINE
  8
0-0
  6
CONTINUOUS
 62
    7
 10
71706.221
 20
74546.687
 11
71078.214
 21
74689.034
  0
LINE
  8
0-0
  6
CONTINUOUS
 62
    7
 10
71078.214
 20
74689.034
 11
70852.118
 21
74739.264
  0
LINE
  8
0-0
  6
CONTINUOUS
 62
    7
 10
70852.118
 20
74739.264
 11
70684.666
 21
74797.887
  0
LINE
  8
0-0
  6
CONTINUOUS
 62
    7
 10
137521.28
 20
69405.402
 11
52832.517
 21
69405.402
  0
LINE
  8
0-0
  6
CONTINUOUS
 62
    7
 10
138810.8
 20
69405.402
 11
137521.28
 21
69405.402
  0
LINE
  8
0-0
  6
CONTINUOUS
 62
    7
 10
53678.226
 20
69405.402
 11
51434.155
 21
69405.402
  0
LINE
  8
0-0
  6
DASHED3
 62
    7
 10
68946.198
 20
40609.148
 11
68946.198
 21
57609.149
  0
LINE
  8
0-0
  6
CONTINUOUS
 62
    6
 10
62946.189
 20
42513.51
 11
54695.432
 21
47496.076
  0
LINE
  8
0-0
  6
CONTINUOUS
 62
    6
 10
62946.189
 20
55704.783
 11
54695.432
 21
50722.216
  0
LINE
  8
0-0
  6
CONTINUOUS
 62
    7
 10
75671.023
 20
48409.486
 11
75671.023
 21
50215.895
  0
LINE
  8
0-0
  6
CONTINUOUS
 62
    7
 10
67978.624
 20
49190.168
 11
67978.624
 21
47427.912
  0
LINE
  8
0-0
  6
CONTINUOUS
 62
    7
 10
68912.071
 20
45890.172
 11
67978.624
 21
47427.912
  0
LINE
  8
0-0
  6
CONTINUOUS
 62
    7
 10
79079.833
 20
45809.15
 11
79079.833
 21
47809.152
  0
LINE
  8
0-0
  6
CONTINUOUS
 62
    7
 10
78758.548
 20
45809.15
 11
78758.548
 21
47809.152
  0
LINE
  8
0-0
  6
CONTINUOUS
 62
    7
 10
78971.019
 20
47809.152
 11
76205.766
 21
47809.152
  0
LINE
  8
0-0
  6
CONTINUOUS
 62
    7
 10
76205.766
 20
47809.152
 11
76205.766
 21
46549.946
  0
LINE
  8
0-0
  6
CONTINUOUS
 62
    7
 10
67978.624
 20
49190.168
 11
67978.624
 21
50952.425
  0
LINE
  8
0-0
  6
CONTINUOUS
 62
    7
 10
68912.071
 20
52490.164
 11
67978.624
 21
50952.425
  0
LINE
  8
0-0
  6
CENTER2
 62
    7
 10
75671.023
 20
49109.146
 11
74027.439
 21
49109.146
  0
LINE
  8
0-0
  6
CENTER2
 62
    7
 10
75671.023
 20
49109.146
 11
77321.496
 21
49109.146
  0
LINE
  8
0-0
  6
CONTINUOUS
 62
    7
 10
67978.624
 20
47427.912
 11
67978.624
 21
49005.865
  0
LINE
  8
0-0
  6
CONTINUOUS
 62
    7
 10
59753.784
 20
49005.865
 11
59052.471
 21
49005.865
  0
LINE
  8
0-0
  6
CONTINUOUS
 62
    7
 10
59052.471
 20
49005.865
 11
59052.471
 21
47427.912
  0
LINE
  8
0-0
  6
CONTINUOUS
 62
    7
 10
59052.471
 20
47427.912
 11
59753.784
 21
47427.912
  0
LINE
  8
0-0
  6
CONTINUOUS
 62
    6
 10
79609.879
 20
49109.146
 11
79609.879
 21
42086.879
  0
LINE
  8
0-0
  6
CONTINUOUS
 62
    6
 10
79233.919
 20
49109.146
 11
79233.919
 21
41809.152
  0
LINE
  8
0-0
  6
CONTINUOUS
 62
    6
 10
111027.79
 20
49109.146
 11
111027.79
 21
41809.152
  0
LINE
  8
0-0
  6
CONTINUOUS
 62
    6
 10
110627.79
 20
49109.146
 11
110627.79
 21
42086.879
  0
LINE
  8
0-0
  6
CONTINUOUS
 62
    6
 10
79609.879
 20
49109.146
 11
79609.879
 21
56131.419
  0
LINE
  8
0-0
  6
CONTINUOUS
 62
    6
 10
79233.919
 20
49109.146
 11
79233.919
 21
56409.145
  0
LINE
  8
0-0
  6
CONTINUOUS
 62
    6
 10
111027.79
 20
49109.146
 11
111027.79
 21
56409.145
  0
LINE
  8
0-0
  6
CONTINUOUS
 62
    6
 10
110627.79
 20
49109.146
 11
110627.79
 21
56131.419
  0
LINE
  8
0-0
  6
CONTINUOUS
 62
    7
 10
111027.79
 20
44009.145
 11
111027.79
 21
42609.14
  0
LINE
  8
0-0
  6
CONTINUOUS
 62
    7
 10
111027.79
 20
42609.14
 11
112427.79
 21
42609.14
  0
LINE
  8
0-0
  6
CONTINUOUS
 62
    7
 10
112427.79
 20
44009.145
 11
112427.79
 21
42609.14
  0
LINE
  8
0-0
  6
CONTINUOUS
 62
    7
 10
111027.79
 20
44009.145
 11
112427.79
 21
44009.145
  0
LINE
  8
0-0
  6
CONTINUOUS
 62
    7
 10
112427.79
 20
42609.14
 11
111027.79
 21
44009.145
  0
LINE
  8
0-0
  6
CONTINUOUS
 62
    7
 10
111027.79
 20
42609.14
 11
112427.79
 21
44009.145
  0
LINE
  8
0-0
  6
CONTINUOUS
 62
    7
 10
111121.92
 20
42703.281
 11
112333.66
 21
42703.281
  0
LINE
  8
0-0
  6
CONTINUOUS
 62
    7
 10
111121.92
 20
43915.023
 11
111121.92
 21
42703.281
  0
LINE
  8
0-0
  6
CONTINUOUS
 62
    7
 10
112333.66
 20
43915.023
 11
111121.92
 21
43915.023
  0
LINE
  8
0-0
  6
CONTINUOUS
 62
    7
 10
112333.66
 20
42703.281
 11
112333.66
 21
43915.023
  0
LINE
  8
0-0
  6
CONTINUOUS
 62
    7
 10
111027.79
 20
54209.148
 11
111027.79
 21
55609.153
  0
LINE
  8
0-0
  6
CONTINUOUS
 62
    7
 10
111027.79
 20
55609.153
 11
112427.79
 21
55609.153
  0
LINE
  8
0-0
  6
CONTINUOUS
 62
    7
 10
112427.79
 20
54209.148
 11
112427.79
 21
55609.153
  0
LINE
  8
0-0
  6
CONTINUOUS
 62
    7
 10
111027.79
 20
54209.148
 11
112427.79
 21
54209.148
  0
LINE
  8
0-0
  6
CONTINUOUS
 62
    7
 10
112427.79
 20
55609.153
 11
111027.79
 21
54209.148
  0
LINE
  8
0-0
  6
CONTINUOUS
 62
    7
 10
111027.79
 20
55609.153
 11
112427.79
 21
54209.148
  0
LINE
  8
0-0
  6
CONTINUOUS
 62
    7
 10
111121.92
 20
55515.017
 11
112333.66
 21
55515.017
  0
LINE
  8
0-0
  6
CONTINUOUS
 62
    7
 10
111121.92
 20
54303.274
 11
111121.92
 21
55515.017
  0
LINE
  8
0-0
  6
CONTINUOUS
 62
    7
 10
112333.66
 20
54303.274
 11
111121.92
 21
54303.274
  0
LINE
  8
0-0
  6
CONTINUOUS
 62
    7
 10
112333.66
 20
55515.017
 11
112333.66
 21
54303.274
  0
LINE
  8
0-0
  6
CONTINUOUS
 62
    7
 10
115561.6
 20
46809.258
 11
115561.6
 21
49098.497
  0
LINE
  8
0-0
  6
CONTINUOUS
 62
    7
 10
115561.6
 20
49098.497
 11
114486.35
 21
49098.497
  0
LINE
  8
0-0
  6
CONTINUOUS
 62
    7
 10
114486.35
 20
49098.497
 11
114486.35
 21
46809.258
  0
LINE
  8
0-0
  6
CONTINUOUS
 62
    7
 10
114486.35
 20
46809.258
 11
115561.6
 21
46809.258
  0
LINE
  8
0-0
  6
CONTINUOUS
 62
    7
 10
115284.11
 20
47468.279
 11
115284.11
 21
48959.762
  0
LINE
  8
0-0
  6
CONTINUOUS
 62
    7
 10
115284.11
 20
48959.762
 11
114625.09
 21
48959.762
  0
LINE
  8
0-0
  6
CONTINUOUS
 62
    7
 10
114625.09
 20
48959.762
 11
114625.09
 21
47468.279
  0
LINE
  8
0-0
  6
CONTINUOUS
 62
    7
 10
114625.09
 20
47468.279
 11
115284.11
 21
47468.279
  0
LINE
  8
0-0
  6
CONTINUOUS
 62
    7
 10
114625.09
 20
47815.135
 11
115284.11
 21
47815.135
  0
LINE
  8
0-0
  6
CONTINUOUS
 62
    7
 10
114625.09
 20
48161.986
 11
115284.11
 21
48161.986
  0
LINE
  8
0-0
  6
CONTINUOUS
 62
    7
 10
114625.09
 20
48508.848
 11
115284.11
 21
48508.848
  0
LINE
  8
0-0
  6
CONTINUOUS
 62
    7
 10
114625.09
 20
48855.709
 11
115284.11
 21
48855.709
  0
LINE
  8
0-0
  6
CONTINUOUS
 62
    7
 10
114590.4
 20
49410.667
 11
114590.4
 21
53919.802
  0
LINE
  8
0-0
  6
CONTINUOUS
 62
    7
 10
114590.4
 20
53919.802
 11
111711.5
 21
53919.802
  0
LINE
  8
0-0
  6
CONTINUOUS
 62
    7
 10
111711.5
 20
53919.802
 11
111711.5
 21
49410.667
  0
LINE
  8
0-0
  6
CONTINUOUS
 62
    7
 10
111711.5
 20
49410.667
 11
114590.4
 21
49410.667
  0
LINE
  8
0-0
  6
CONTINUOUS
 62
    7
 10
116290
 20
48335.412
 11
116290
 21
49826.9
  0
LINE
  8
0-0
  6
CONTINUOUS
 62
    7
 10
116290
 20
49826.9
 11
115908.46
 21
49826.9
  0
LINE
  8
0-0
  6
CONTINUOUS
 62
    7
 10
115908.46
 20
49826.9
 11
115908.46
 21
48335.412
  0
LINE
  8
0-0
  6
CONTINUOUS
 62
    7
 10
115908.46
 20
48335.412
 11
116290
 21
48335.412
  0
LINE
  8
0-0
  6
CONTINUOUS
 62
    7
 10
116012.52
 20
53226.099
 11
116012.52
 21
53746.376
  0
LINE
  8
0-0
  6
CONTINUOUS
 62
    7
 10
116012.52
 20
53746.376
 11
115630.97
 21
53746.376
  0
LINE
  8
0-0
  6
CONTINUOUS
 62
    7
 10
115630.97
 20
53746.376
 11
115630.97
 21
53226.099
  0
LINE
  8
0-0
  6
CONTINUOUS
 62
    7
 10
115630.97
 20
53226.099
 11
116012.52
 21
53226.099
  0
LINE
  8
0-0
  6
CONTINUOUS
 62
    6
 10
134219.66
 20
44212.654
 11
134026.94
 21
44509.156
  0
LINE
  8
0-0
  6
CONTINUOUS
 62
    6
 10
134219.66
 20
42727.486
 11
134219.66
 21
44212.654
  0
LINE
  8
0-0
  6
CONTINUOUS
 62
    6
 10
134023.98
 20
42419.982
 11
134219.66
 21
42727.486
  0
LINE
  8
0-0
  6
CONTINUOUS
 62
    7
 10
122985.02
 20
46869.668
 11
122985.02
 21
49109.146
  0
LINE
  8
0-0
  6
CONTINUOUS
 62
    7
 10
128358.22
 20
47305.33
 11
128358.22
 21
49109.146
  0
LINE
  8
0-0
  6
CONTINUOUS
 62
    7
 10
122985.02
 20
47305.33
 11
128358.22
 21
47305.33
  0
LINE
  8
0-0
  6
CONTINUOUS
 62
    7
 10
122985.02
 20
51348.625
 11
122985.02
 21
49109.146
  0
LINE
  8
0-0
  6
CONTINUOUS
 62
    7
 10
128358.22
 20
50912.963
 11
128358.22
 21
49109.146
  0
LINE
  8
0-0
  6
CONTINUOUS
 62
    7
 10
122985.02
 20
50912.963
 11
128358.22
 21
50912.963
  0
LINE
  8
0-0
  6
CONTINUOUS
 62
    7
 10
127196.44
 20
48176.665
 11
127196.44
 21
50137.15
  0
LINE
  8
0-0
  6
CONTINUOUS
 62
    7
 10
127196.44
 20
50137.15
 11
123565.91
 21
50137.15
  0
LINE
  8
0-0
  6
CONTINUOUS
 62
    7
 10
123565.91
 20
50137.15
 11
123565.91
 21
48176.665
  0
LINE
  8
0-0
  6
CONTINUOUS
 62
    7
 10
123565.91
 20
48176.665
 11
127196.44
 21
48176.665
  0
LINE
  8
0-0
  6
CONTINUOUS
 62
    7
 10
132360.73
 20
45925.724
 11
132360.73
 21
52242.863
  0
LINE
  8
0-0
  6
CONTINUOUS
 62
    7
 10
132360.73
 20
52242.863
 11
131344.17
 21
52242.863
  0
LINE
  8
0-0
  6
CONTINUOUS
 62
    7
 10
131344.17
 20
52242.863
 11
131344.17
 21
45925.724
  0
LINE
  8
0-0
  6
CONTINUOUS
 62
    7
 10
131344.17
 20
45925.724
 11
132360.73
 21
45925.724
  0
LINE
  8
ADD_LINE
  6
DOT
 62
    7
 10
113925.39
 20
49109.146
 11
118979.11
 21
49109.146
  0
LINE
  8
0-0
  6
CONTINUOUS
 62
    7
 10
129947.14
 20
43137.681
 11
129947.14
 21
44058.593
  0
LINE
  8
0-0
  6
CONTINUOUS
 62
    7
 10
129947.14
 20
44058.593
 11
128738.45
 21
44058.593
  0
LINE
  8
0-0
  6
CONTINUOUS
 62
    7
 10
128738.45
 20
44058.593
 11
128738.45
 21
43137.681
  0
LINE
  8
0-0
  6
CONTINUOUS
 62
    7
 10
128738.45
 20
43137.681
 11
129947.14
 21
43137.681
  0
LINE
  8
0-0
  6
CONTINUOUS
 62
    7
 10
127184.39
 20
42159.205
 11
127184.39
 21
43195.236
  0
LINE
  8
0-0
  6
CONTINUOUS
 62
    7
 10
123396.21
 20
43195.236
 11
123396.21
 21
42159.205
  0
LINE
  8
0-0
  6
CONTINUOUS
 62
    7
 10
134033.71
 20
42677.231
 11
134033.71
 21
44058.593
  0
LINE
  8
0-0
  6
CONTINUOUS
 62
    7
 10
134033.71
 20
44058.593
 11
133630.81
 21
44058.593
  0
LINE
  8
0-0
  6
CONTINUOUS
 62
    7
 10
133630.81
 20
44058.593
 11
133630.81
 21
42677.231
  0
LINE
  8
0-0
  6
CONTINUOUS
 62
    7
 10
133630.81
 20
42677.231
 11
134033.71
 21
42677.231
  0
LINE
  8
0-0
  6
CONTINUOUS
 62
    7
 10
120691.02
 20
41353.418
 11
118503.85
 21
41353.418
  0
LINE
  8
0-0
  6
CONTINUOUS
 62
    7
 10
129947.14
 20
55080.611
 11
129947.14
 21
54159.7
  0
LINE
  8
0-0
  6
CONTINUOUS
 62
    7
 10
129947.14
 20
54159.7
 11
128738.45
 21
54159.7
  0
LINE
  8
0-0
  6
CONTINUOUS
 62
    7
 10
128738.45
 20
54159.7
 11
128738.45
 21
55080.611
  0
LINE
  8
0-0
  6
CONTINUOUS
 62
    7
 10
128738.45
 20
55080.611
 11
129947.14
 21
55080.611
  0
LINE
  8
0-0
  6
CONTINUOUS
 62
    7
 10
127184.39
 20
56059.087
 11
127184.39
 21
55023.057
  0
LINE
  8
0-0
  6
CONTINUOUS
 62
    7
 10
123396.21
 20
55023.057
 11
123396.21
 21
56059.087
  0
LINE
  8
0-0
  6
CONTINUOUS
 62
    7
 10
134033.71
 20
55541.067
 11
134033.71
 21
54159.7
  0
LINE
  8
0-0
  6
CONTINUOUS
 62
    7
 10
134033.71
 20
54159.7
 11
133630.81
 21
54159.7
  0
LINE
  8
0-0
  6
CONTINUOUS
 62
    7
 10
133630.81
 20
54159.7
 11
133630.81
 21
55541.067
  0
LINE
  8
0-0
  6
CONTINUOUS
 62
    7
 10
120691.02
 20
57382.9
 11
120691.02
 21
56864.88
  0
LINE
  8
0-0
  6
CONTINUOUS
 62
    7
 10
120691.02
 20
56864.88
 11
118503.85
 21
56864.88
  0
LINE
  8
0-0
  6
CONTINUOUS
 62
    7
 10
118503.85
 20
56864.88
 11
118503.85
 21
57382.9
  0
LINE
  8
0-0
  6
CONTINUOUS
 62
    7
 10
118503.85
 20
57382.9
 11
120691.02
 21
57382.9
  0
LINE
  8
0-0
  6
CONTINUOUS
 62
    7
 10
122697.75
 20
41813.869
 11
122697.75
 21
43745.78
  0
LINE
  8
0-0
  6
CONTINUOUS
 62
    7
 10
122697.75
 20
56404.424
 11
122697.75
 21
54472.513
  0
LINE
  8
0-0
  6
CONTINUOUS
 62
    7
 10
78971.019
 20
45809.15
 11
68961.257
 21
45809.15
  0
LINE
  8
0-0
  6
CONTINUOUS
 62
    7
 10
78649.733
 20
46549.946
 11
68511.57
 21
46549.946
  0
LINE
  8
0-0
  6
CONTINUOUS
 62
    7
 10
68912.071
 20
52490.164
 11
78439.786
 21
52490.164
  0
LINE
  8
0-0
  6
CONTINUOUS
 62
    7
 10
78439.786
 20
47809.152
 11
78439.786
 21
52490.164
  0
LINE
  8
0-0
  6
CONTINUOUS
 62
    7
 10
78439.786
 20
51688.385
 11
68425.362
 21
51688.385
  0
LINE
  8
0-0
  6
CONTINUOUS
 62
    7
 10
133630.81
 20
55541.067
 11
134033.71
 21
55541.067
  0
LINE
  8
0-0
  6
CONTINUOUS
 62
    6
 10
111027.79
 20
41809.152
 11
79233.919
 21
41809.152
  0
LINE
  8
0-0
  6
CONTINUOUS
 62
    6
 10
111027.79
 20
42086.879
 11
79609.879
 21
42086.879
  0
LINE
  8
0-0
  6
CONTINUOUS
 62
    6
 10
111027.79
 20
56409.145
 11
79233.919
 21
56409.145
  0
LINE
  8
0-0
  6
CONTINUOUS
 62
    6
 10
111027.79
 20
56131.419
 11
79609.879
 21
56131.419
  0
LINE
  8
0-0
  6
CONTINUOUS
 62
    7
 10
122697.75
 20
41813.869
 11
115515.94
 21
41813.869
  0
LINE
  8
0-0
  6
CONTINUOUS
 62
    7
 10
115515.94
 20
41813.869
 11
115515.94
 21
56404.424
  0
LINE
  8
0-0
  6
CONTINUOUS
 62
    7
 10
122697.75
 20
56404.424
 11
115515.94
 21
56404.424
  0
LINE
  8
0-0
  6
CONTINUOUS
 62
    7
 10
121636.91
 20
42968.279
 11
121636.91
 21
55380.885
  0
LINE
  8
0-0
  6
CONTINUOUS
 62
    7
 10
122697.75
 20
43745.78
 11
122697.75
 21
54472.513
  0
LINE
  8
0-0
  6
CONTINUOUS
 62
    7
 10
122697.75
 20
41813.869
 11
130981.64
 21
41813.869
  0
LINE
  8
0-0
  6
CONTINUOUS
 62
    7
 10
122697.75
 20
56404.424
 11
130981.64
 21
56404.424
  0
LINE
  8
0-0
  6
CONTINUOUS
 62
    7
 10
123396.21
 20
42159.205
 11
127184.39
 21
42159.205
  0
LINE
  8
0-0
  6
CONTINUOUS
 62
    7
 10
127184.39
 20
43195.236
 11
123396.21
 21
43195.236
  0
LINE
  8
0-0
  6
CONTINUOUS
 62
    7
 10
123753.22
 20
43195.236
 11
123753.22
 21
42159.205
  0
LINE
  8
0-0
  6
CONTINUOUS
 62
    7
 10
124110.22
 20
43195.236
 11
124110.22
 21
42159.205
  0
LINE
  8
0-0
  6
CONTINUOUS
 62
    7
 10
124467.23
 20
43195.236
 11
124467.23
 21
42159.205
  0
LINE
  8
0-0
  6
CONTINUOUS
 62
    7
 10
124824.23
 20
43195.236
 11
124824.23
 21
42159.205
  0
LINE
  8
0-0
  6
CONTINUOUS
 62
    7
 10
125181.24
 20
43195.236
 11
125181.24
 21
42159.205
  0
LINE
  8
0-0
  6
CONTINUOUS
 62
    7
 10
125538.25
 20
43195.236
 11
125538.25
 21
42159.205
  0
LINE
  8
0-0
  6
CONTINUOUS
 62
    7
 10
125895.25
 20
43195.236
 11
125895.25
 21
42159.205
  0
LINE
  8
0-0
  6
CONTINUOUS
 62
    7
 10
126252.26
 20
43195.236
 11
126252.26
 21
42159.205
  0
LINE
  8
0-0
  6
CONTINUOUS
 62
    7
 10
126609.27
 20
43195.236
 11
126609.27
 21
42159.205
  0
LINE
  8
0-0
  6
CONTINUOUS
 62
    7
 10
126966.27
 20
43195.236
 11
126966.27
 21
42159.205
  0
LINE
  8
0-0
  6
CONTINUOUS
 62
    7
 10
127184.39
 20
55023.057
 11
123396.21
 21
55023.057
  0
LINE
  8
0-0
  6
CONTINUOUS
 62
    7
 10
123396.21
 20
56059.087
 11
127184.39
 21
56059.087
  0
LINE
  8
0-0
  6
CONTINUOUS
 62
    7
 10
123753.22
 20
56059.087
 11
123753.22
 21
55023.057
  0
LINE
  8
0-0
  6
CONTINUOUS
 62
    7
 10
124110.22
 20
56059.087
 11
124110.22
 21
55023.057
  0
LINE
  8
0-0
  6
CONTINUOUS
 62
    7
 10
124467.23
 20
56059.087
 11
124467.23
 21
55023.057
  0
LINE
  8
0-0
  6
CONTINUOUS
 62
    7
 10
124824.23
 20
56059.087
 11
124824.23
 21
55023.057
  0
LINE
  8
0-0
  6
CONTINUOUS
 62
    7
 10
125181.24
 20
56059.087
 11
125181.24
 21
55023.057
  0
LINE
  8
0-0
  6
CONTINUOUS
 62
    7
 10
125538.25
 20
56059.087
 11
125538.25
 21
55023.057
  0
LINE
  8
0-0
  6
CONTINUOUS
 62
    7
 10
125895.25
 20
56059.087
 11
125895.25
 21
55023.057
  0
LINE
  8
0-0
  6
CONTINUOUS
 62
    7
 10
126252.26
 20
56059.087
 11
126252.26
 21
55023.057
  0
LINE
  8
0-0
  6
CONTINUOUS
 62
    7
 10
126609.27
 20
56059.087
 11
126609.27
 21
55023.057
  0
LINE
  8
0-0
  6
CONTINUOUS
 62
    7
 10
126966.27
 20
56059.087
 11
126966.27
 21
55023.057
  0
LINE
  8
0-0
  6
CENTER2
 62
    7
 10
79609.879
 20
42086.879
 11
110627.79
 21
56131.419
  0
LINE
  8
0-0
  6
CENTER2
 62
    7
 10
110627.79
 20
42086.879
 11
79609.879
 21
56131.419
  0
LINE
  8
0-0
  6
CONTINUOUS
 62
    7
 10
136566.72
 20
43783.781
 11
136566.72
 21
54434.511
  0
LINE
  8
0-0
  6
CONTINUOUS
 62
    6
 10
125219.67
 20
40609.148
 11
68946.198
 21
40609.148
  0
LINE
  8
0-0
  6
CONTINUOUS
 62
    6
 10
125219.67
 20
57609.149
 11
68946.198
 21
57609.149
  0
LINE
  8
0-0
  6
CONTINUOUS
 62
    7
 10
123799.57
 20
40704.047
 11
123799.57
 21
41780.776
  0
LINE
  8
0-0
  6
CONTINUOUS
 62
    7
 10
123799.57
 20
41780.776
 11
127306.62
 21
41780.776
  0
LINE
  8
0-0
  6
CONTINUOUS
 62
    7
 10
127306.62
 20
41780.776
 11
127306.62
 21
40704.047
  0
LINE
  8
0-0
  6
CONTINUOUS
 62
    7
 10
127306.62
 20
40704.047
 11
123799.57
 21
40704.047
  0
LINE
  8
0-0
  6
CONTINUOUS
 62
    7
 10
111427.52
 20
40662.548
 11
111427.52
 21
41739.275
  0
LINE
  8
0-0
  6
CONTINUOUS
 62
    7
 10
111427.52
 20
41739.275
 11
114934.57
 21
41739.275
  0
LINE
  8
0-0
  6
CONTINUOUS
 62
    7
 10
114934.57
 20
41739.275
 11
114934.57
 21
40662.548
  0
LINE
  8
0-0
  6
CONTINUOUS
 62
    7
 10
114934.57
 20
40662.548
 11
111427.52
 21
40662.548
  0
LINE
  8
0-0
  6
CONTINUOUS
 62
    7
 10
123799.57
 20
57514.246
 11
123799.57
 21
56437.517
  0
LINE
  8
0-0
  6
CONTINUOUS
 62
    7
 10
123799.57
 20
56437.517
 11
127306.62
 21
56437.517
  0
LINE
  8
0-0
  6
CONTINUOUS
 62
    7
 10
127306.62
 20
56437.517
 11
127306.62
 21
57514.246
  0
LINE
  8
0-0
  6
CONTINUOUS
 62
    7
 10
127306.62
 20
57514.246
 11
123799.57
 21
57514.246
  0
LINE
  8
0-0
  6
CONTINUOUS
 62
    7
 10
111427.52
 20
57555.747
 11
111427.52
 21
56479.017
  0
LINE
  8
0-0
  6
CONTINUOUS
 62
    7
 10
111427.52
 20
56479.017
 11
114934.57
 21
56479.017
  0
LINE
  8
0-0
  6
CONTINUOUS
 62
    7
 10
114934.57
 20
56479.017
 11
114934.57
 21
57555.747
  0
LINE
  8
0-0
  6
CONTINUOUS
 62
    7
 10
114934.57
 20
57555.747
 11
111427.52
 21
57555.747
  0
LINE
  8
0-0
  6
CONTINUOUS
 62
    7
 10
130518.12
 20
56995.8
 11
130149.86
 21
55984.004
  0
LINE
  8
0-0
  6
CONTINUOUS
 62
    7
 10
130149.86
 20
55984.004
 11
133445.41
 21
54784.52
  0
LINE
  8
0-0
  6
CONTINUOUS
 62
    7
 10
133445.41
 20
54784.52
 11
133813.67
 21
55796.316
  0
LINE
  8
0-0
  6
CONTINUOUS
 62
    7
 10
133813.67
 20
55796.316
 11
130518.12
 21
56995.8
  0
LINE
  8
0-0
  6
CONTINUOUS
 62
    7
 10
130518.12
 20
41222.492
 11
130149.86
 21
42234.289
  0
LINE
  8
0-0
  6
CONTINUOUS
 62
    7
 10
130149.86
 20
42234.289
 11
133445.41
 21
43433.773
  0
LINE
  8
0-0
  6
CONTINUOUS
 62
    7
 10
133445.41
 20
43433.773
 11
133813.67
 21
42421.977
  0
LINE
  8
0-0
  6
CONTINUOUS
 62
    7
 10
133813.67
 20
42421.977
 11
130518.12
 21
41222.492
  0
LINE
  8
0-0
  6
CONTINUOUS
 62
    7
 10
69155.547
 20
40778.031
 11
69155.547
 21
41854.76
  0
LINE
  8
0-0
  6
CONTINUOUS
 62
    7
 10
69155.547
 20
41854.76
 11
72662.606
 21
41854.76
  0
LINE
  8
0-0
  6
CONTINUOUS
 62
    7
 10
72662.606
 20
41854.76
 11
72662.606
 21
40778.031
  0
LINE
  8
0-0
  6
CONTINUOUS
 62
    7
 10
72662.606
 20
40778.031
 11
69155.547
 21
40778.031
  0
LINE
  8
0-0
  6
CONTINUOUS
 62
    7
 10
69155.547
 20
57440.262
 11
69155.547
 21
56363.532
  0
LINE
  8
0-0
  6
CONTINUOUS
 62
    7
 10
69155.547
 20
56363.532
 11
72662.606
 21
56363.532
  0
LINE
  8
0-0
  6
CONTINUOUS
 62
    7
 10
72662.606
 20
56363.532
 11
72662.606
 21
57440.262
  0
LINE
  8
0-0
  6
CONTINUOUS
 62
    7
 10
72662.606
 20
57440.262
 11
69155.547
 21
57440.262
  0
LINE
  8
0-0
  6
CONTINUOUS
 62
    7
 10
60569.673
 20
52816.027
 11
60031.313
 21
53748.509
  0
LINE
  8
0-0
  6
CONTINUOUS
 62
    7
 10
60031.313
 20
53748.509
 11
63068.508
 21
55502.036
  0
LINE
  8
0-0
  6
CONTINUOUS
 62
    7
 10
63068.508
 20
55502.036
 11
63606.868
 21
54569.559
  0
LINE
  8
0-0
  6
CONTINUOUS
 62
    7
 10
63606.868
 20
54569.559
 11
60569.673
 21
52816.027
  0
LINE
  8
0-0
  6
CONTINUOUS
 62
    7
 10
60569.673
 20
45402.265
 11
60031.313
 21
44469.784
  0
LINE
  8
0-0
  6
CONTINUOUS
 62
    7
 10
60031.313
 20
44469.784
 11
63068.508
 21
42716.257
  0
LINE
  8
0-0
  6
CONTINUOUS
 62
    7
 10
63068.508
 20
42716.257
 11
63606.868
 21
43648.734
  0
LINE
  8
0-0
  6
CONTINUOUS
 62
    7
 10
63606.868
 20
43648.734
 11
60569.673
 21
45402.265
  0
LINE
  8
0-0
  6
CONTINUOUS
 62
    7
 10
59753.784
 20
47427.912
 11
59753.784
 21
49005.865
  0
LINE
  8
0-0
  6
CONTINUOUS
 62
    7
 10
130661.7
 20
52120.449
 11
130661.7
 21
51962.063
  0
LINE
  8
0-0
  6
CONTINUOUS
 62
    7
 10
130661.7
 20
51962.063
 11
133072.68
 21
51962.063
  0
LINE
  8
0-0
  6
CONTINUOUS
 62
    7
 10
133072.68
 20
51962.063
 11
133072.68
 21
52120.449
  0
LINE
  8
0-0
  6
CONTINUOUS
 62
    7
 10
133072.68
 20
52120.449
 11
130661.7
 21
52120.449
  0
LINE
  8
0-0
  6
CONTINUOUS
 62
    7
 10
130661.7
 20
50255.015
 11
130661.7
 21
50096.629
  0
LINE
  8
0-0
  6
CONTINUOUS
 62
    7
 10
130661.7
 20
50096.629
 11
133072.68
 21
50096.629
  0
LINE
  8
0-0
  6
CONTINUOUS
 62
    7
 10
133072.68
 20
50096.629
 11
133072.68
 21
50255.015
  0
LINE
  8
0-0
  6
CONTINUOUS
 62
    7
 10
133072.68
 20
50255.015
 11
130661.7
 21
50255.015
  0
LINE
  8
0-0
  6
CONTINUOUS
 62
    7
 10
131101.65
 20
49084.294
 11
132808.7
 21
49084.294
  0
LINE
  8
0-0
  6
CONTINUOUS
 62
    7
 10
130661.7
 20
46048.138
 11
130661.7
 21
46206.524
  0
LINE
  8
0-0
  6
CONTINUOUS
 62
    7
 10
130661.7
 20
46206.524
 11
133072.68
 21
46206.524
  0
LINE
  8
0-0
  6
CONTINUOUS
 62
    7
 10
133072.68
 20
46206.524
 11
133072.68
 21
46048.138
  0
LINE
  8
0-0
  6
CONTINUOUS
 62
    7
 10
133072.68
 20
46048.138
 11
130661.7
 21
46048.138
  0
LINE
  8
0-0
  6
CONTINUOUS
 62
    7
 10
130661.7
 20
47913.572
 11
130661.7
 21
48071.963
  0
LINE
  8
0-0
  6
CONTINUOUS
 62
    7
 10
130661.7
 20
48071.963
 11
133072.68
 21
48071.963
  0
LINE
  8
0-0
  6
CONTINUOUS
 62
    7
 10
133072.68
 20
48071.963
 11
133072.68
 21
47913.572
  0
LINE
  8
0-0
  6
CONTINUOUS
 62
    7
 10
133072.68
 20
47913.572
 11
130661.7
 21
47913.572
  0
LINE
  8
0-0
  6
CONTINUOUS
 62
    7
 10
64257.189
 20
45925.724
 11
64257.189
 21
52242.863
  0
LINE
  8
0-0
  6
CONTINUOUS
 62
    7
 10
64257.189
 20
52242.863
 11
63240.642
 21
52242.863
  0
LINE
  8
0-0
  6
CONTINUOUS
 62
    7
 10
63240.642
 20
52242.863
 11
63240.642
 21
45925.724
  0
LINE
  8
0-0
  6
CONTINUOUS
 62
    7
 10
63240.642
 20
45925.724
 11
64257.189
 21
45925.724
  0
LINE
  8
0-0
  6
CONTINUOUS
 62
    7
 10
62558.158
 20
52120.449
 11
62558.158
 21
51962.063
  0
LINE
  8
0-0
  6
CONTINUOUS
 62
    7
 10
62558.158
 20
51962.063
 11
64969.143
 21
51962.063
  0
LINE
  8
0-0
  6
CONTINUOUS
 62
    7
 10
64969.143
 20
51962.063
 11
64969.143
 21
52120.449
  0
LINE
  8
0-0
  6
CONTINUOUS
 62
    7
 10
64969.143
 20
52120.449
 11
62558.158
 21
52120.449
  0
LINE
  8
0-0
  6
CONTINUOUS
 62
    7
 10
62558.158
 20
50255.015
 11
62558.158
 21
50096.629
  0
LINE
  8
0-0
  6
CONTINUOUS
 62
    7
 10
62558.158
 20
50096.629
 11
64969.143
 21
50096.629
  0
LINE
  8
0-0
  6
CONTINUOUS
 62
    7
 10
64969.143
 20
50096.629
 11
64969.143
 21
50255.015
  0
LINE
  8
0-0
  6
CONTINUOUS
 62
    7
 10
64969.143
 20
50255.015
 11
62558.158
 21
50255.015
  0
LINE
  8
0-0
  6
CONTINUOUS
 62
    7
 10
62998.111
 20
49084.294
 11
64705.159
 21
49084.294
  0
LINE
  8
0-0
  6
CONTINUOUS
 62
    7
 10
62558.158
 20
46048.138
 11
62558.158
 21
46206.524
  0
LINE
  8
0-0
  6
CONTINUOUS
 62
    7
 10
62558.158
 20
46206.524
 11
64969.143
 21
46206.524
  0
LINE
  8
0-0
  6
CONTINUOUS
 62
    7
 10
64969.143
 20
46206.524
 11
64969.143
 21
46048.138
  0
LINE
  8
0-0
  6
CONTINUOUS
 62
    7
 10
64969.143
 20
46048.138
 11
62558.158
 21
46048.138
  0
LINE
  8
0-0
  6
CONTINUOUS
 62
    7
 10
62558.158
 20
47913.572
 11
62558.158
 21
48071.963
  0
LINE
  8
0-0
  6
CONTINUOUS
 62
    7
 10
62558.158
 20
48071.963
 11
64969.143
 21
48071.963
  0
LINE
  8
0-0
  6
CONTINUOUS
 62
    7
 10
64969.143
 20
48071.963
 11
64969.143
 21
47913.572
  0
LINE
  8
0-0
  6
CONTINUOUS
 62
    7
 10
64969.143
 20
47913.572
 11
62558.158
 21
47913.572
  0
LINE
  8
0-0
  6
CONTINUOUS
 62
    7
 10
121636.91
 20
55380.885
 11
115515.94
 21
55380.885
  0
LINE
  8
0-0
  6
CONTINUOUS
 62
    7
 10
121636.91
 20
42968.279
 11
115515.94
 21
42968.279
  0
LINE
  8
0-0
  6
CONTINUOUS
 62
    7
 10
35297.289
 20
64808.401
 11
22297.296
 21
64808.401
  0
LINE
  8
0-0
  6
CONTINUOUS
 62
    7
 10
122775.68
 20
81086.323
 11
115591.31
 21
81086.323
  0
LINE
  8
0-0
  6
CONTINUOUS
 62
    7
 10
25270.79
 20
83791.493
 11
25270.79
 21
82123.546
  0
LINE
  8
0-0
  6
CONTINUOUS
 62
    7
 10
25270.79
 20
82123.546
 11
26660.748
 21
82123.546
  0
LINE
  8
0-0
  6
CONTINUOUS
 62
    7
 10
26660.748
 20
82123.546
 11
26660.748
 21
83791.493
  0
LINE
  8
0-0
  6
CONTINUOUS
 62
    7
 10
26660.748
 20
83791.493
 11
25270.79
 21
83791.493
  0
LINE
  8
0-0
  6
CONTINUOUS
 62
    7
 10
27031.413
 20
83791.493
 11
27031.413
 21
82123.546
  0
LINE
  8
0-0
  6
CONTINUOUS
 62
    7
 10
27031.413
 20
82123.546
 11
28421.362
 21
82123.546
  0
LINE
  8
0-0
  6
CONTINUOUS
 62
    7
 10
28421.362
 20
82123.546
 11
28421.362
 21
83791.493
  0
LINE
  8
0-0
  6
CONTINUOUS
 62
    7
 10
28421.362
 20
83791.493
 11
27031.413
 21
83791.493
  0
LINE
  8
0-0
  6
CONTINUOUS
 62
    7
 10
20297.289
 20
66808.402
 11
20297.289
 21
73793.074
  0
LINE
  8
0-0
  6
CONTINUOUS
 62
    7
 10
28797.292
 20
81086.323
 11
22887.578
 21
81086.323
  0
LINE
  8
0-0
  6
CONTINUOUS
 62
    7
 10
22887.578
 20
81086.323
 11
22887.578
 21
78230.986
  0
LINE
  8
0-0
  6
CONTINUOUS
 62
    7
 10
22887.578
 20
78230.986
 11
21297.293
 21
78230.986
  0
LINE
  8
0-0
  6
CONTINUOUS
 62
    7
 10
21297.293
 20
73918.264
 11
21297.293
 21
78230.986
  0
LINE
  8
0-0
  6
CONTINUOUS
 62
    7
 10
28797.292
 20
81086.323
 11
34707.016
 21
81086.323
  0
LINE
  8
0-0
  6
CONTINUOUS
 62
    7
 10
34707.016
 20
81086.323
 11
34707.016
 21
78230.986
  0
LINE
  8
0-0
  6
CONTINUOUS
 62
    7
 10
34707.016
 20
78230.986
 11
36297.292
 21
78230.986
  0
LINE
  8
0-0
  6
CONTINUOUS
 62
    7
 10
36297.292
 20
73918.264
 11
36297.292
 21
78230.986
  0
LINE
  8
0-0
  6
CONTINUOUS
 62
    7
 10
28797.292
 20
84678.515
 11
24735.172
 21
84678.515
  0
LINE
  8
0-0
  6
CONTINUOUS
 62
    7
 10
28797.292
 20
84678.515
 11
32859.413
 21
84678.515
  0
LINE
  8
0-0
  6
CONTINUOUS
 62
    7
 10
24735.172
 20
84678.515
 11
24735.172
 21
81086.323
  0
LINE
  8
0-0
  6
CONTINUOUS
 62
    7
 10
32859.413
 20
84678.515
 11
32859.413
 21
81086.323
  0
LINE
  8
0-0
  6
CONTINUOUS
 62
    7
 10
32323.804
 20
83791.493
 11
32323.804
 21
82123.546
  0
LINE
  8
0-0
  6
CONTINUOUS
 62
    7
 10
32323.804
 20
82123.546
 11
30933.836
 21
82123.546
  0
LINE
  8
0-0
  6
CONTINUOUS
 62
    7
 10
30933.836
 20
82123.546
 11
30933.836
 21
83791.493
  0
LINE
  8
0-0
  6
CONTINUOUS
 62
    7
 10
30933.836
 20
83791.493
 11
32323.804
 21
83791.493
  0
LINE
  8
0-0
  6
CONTINUOUS
 62
    7
 10
30563.181
 20
83791.493
 11
30563.181
 21
82123.546
  0
LINE
  8
0-0
  6
CONTINUOUS
 62
    7
 10
30563.181
 20
82123.546
 11
29173.233
 21
82123.546
  0
LINE
  8
0-0
  6
CONTINUOUS
 62
    7
 10
29173.233
 20
82123.546
 11
29173.233
 21
83791.493
  0
LINE
  8
0-0
  6
CONTINUOUS
 62
    7
 10
29173.233
 20
83791.493
 11
30563.181
 21
83791.493
  0
LINE
  8
0-0
  6
CONTINUOUS
 62
    7
 10
28294.89
 20
101486.83
 11
29299.664
 21
101486.83
  0
LINE
  8
0-0
  6
CONTINUOUS
 62
    7
 10
29299.664
 20
101486.83
 11
29299.664
 21
101310.99
  0
LINE
  8
0-0
  6
CONTINUOUS
 62
    7
 10
29299.664
 20
101310.99
 11
28294.89
 21
101310.99
  0
LINE
  8
0-0
  6
CONTINUOUS
 62
    7
 10
28294.89
 20
101310.99
 11
28294.89
 21
101486.83
  0
LINE
  8
0-0
  6
CONTINUOUS
 62
    7
 10
28713.371
 20
101313.39
 11
28872.474
 21
101313.39
  0
LINE
  8
0-0
  6
CONTINUOUS
 62
    7
 10
28872.474
 20
101313.39
 11
28872.474
 21
100970.09
  0
LINE
  8
0-0
  6
CONTINUOUS
 62
    7
 10
28872.474
 20
100970.09
 11
28713.371
 21
100970.09
  0
LINE
  8
0-0
  6
CONTINUOUS
 62
    7
 10
28713.371
 20
100970.09
 11
28713.371
 21
101313.39
  0
LINE
  8
0-0
  6
CONTINUOUS
 62
    7
 10
27996.389
 20
100966.45
 11
29687.818
 21
100966.45
  0
LINE
  8
0-0
  6
CONTINUOUS
 62
    7
 10
29687.818
 20
100966.45
 11
29687.818
 21
100338.45
  0
LINE
  8
0-0
  6
CONTINUOUS
 62
    7
 10
29687.818
 20
100338.45
 11
27996.389
 21
100338.45
  0
LINE
  8
0-0
  6
CONTINUOUS
 62
    7
 10
27996.389
 20
100338.45
 11
27996.389
 21
100966.45
  0
LINE
  8
0-0
  6
CONTINUOUS
 62
    7
 10
28590.878
 20
100179.36
 11
29001.202
 21
100179.36
  0
LINE
  8
0-0
  6
CONTINUOUS
 62
    7
 10
29001.202
 20
100179.36
 11
29001.202
 21
85751.959
  0
LINE
  8
0-0
  6
CONTINUOUS
 62
    7
 10
29001.202
 20
85751.959
 11
28590.878
 21
85751.959
  0
LINE
  8
0-0
  6
CONTINUOUS
 62
    7
 10
28590.878
 20
85751.959
 11
28590.878
 21
100179.36
  0
LINE
  8
0-0
  6
CONTINUOUS
 62
    7
 10
27745.178
 20
98521.427
 11
28590.878
 21
98521.427
  0
LINE
  8
0-0
  6
CONTINUOUS
 62
    7
 10
28590.878
 20
98521.427
 11
28590.878
 21
98295.346
  0
LINE
  8
0-0
  6
CONTINUOUS
 62
    7
 10
28590.878
 20
98295.346
 11
27745.178
 21
98295.346
  0
LINE
  8
0-0
  6
CONTINUOUS
 62
    7
 10
27745.178
 20
98295.346
 11
27745.178
 21
98521.427
  0
LINE
  8
0-0
  6
CONTINUOUS
 62
    7
 10
27711.675
 20
96637.4
 11
28590.878
 21
96637.4
  0
LINE
  8
0-0
  6
CONTINUOUS
 62
    7
 10
28590.878
 20
96637.4
 11
28590.878
 21
96428.066
  0
LINE
  8
0-0
  6
CONTINUOUS
 62
    7
 10
28590.878
 20
96428.066
 11
27711.675
 21
96428.066
  0
LINE
  8
0-0
  6
CONTINUOUS
 62
    7
 10
27711.675
 20
96428.066
 11
27711.675
 21
96637.4
  0
LINE
  8
0-0
  6
CONTINUOUS
 62
    7
 10
27778.672
 20
96637.4
 11
28415.057
 21
96637.4
  0
LINE
  8
0-0
  6
CONTINUOUS
 62
    7
 10
29849.416
 20
98521.427
 11
29003.707
 21
98521.427
  0
LINE
  8
0-0
  6
CONTINUOUS
 62
    7
 10
29003.707
 20
98521.427
 11
29003.707
 21
98295.346
  0
LINE
  8
0-0
  6
CONTINUOUS
 62
    7
 10
29003.707
 20
98295.346
 11
29849.416
 21
98295.346
  0
LINE
  8
0-0
  6
CONTINUOUS
 62
    7
 10
29849.416
 20
98295.346
 11
29849.416
 21
98521.427
  0
LINE
  8
0-0
  6
CONTINUOUS
 62
    7
 10
29882.91
 20
96637.4
 11
29003.707
 21
96637.4
  0
LINE
  8
0-0
  6
CONTINUOUS
 62
    7
 10
29003.707
 20
96637.4
 11
29003.707
 21
96428.066
  0
LINE
  8
0-0
  6
CONTINUOUS
 62
    7
 10
29003.707
 20
96428.066
 11
29882.91
 21
96428.066
  0
LINE
  8
0-0
  6
CONTINUOUS
 62
    7
 10
29882.91
 20
96428.066
 11
29882.91
 21
96637.4
  0
LINE
  8
0-0
  6
CONTINUOUS
 62
    7
 10
29815.923
 20
96637.4
 11
29179.537
 21
96637.4
  0
LINE
  8
0-0
  6
CONTINUOUS
 62
    7
 10
27259.523
 20
100336.82
 11
27996.389
 21
100336.82
  0
LINE
  8
0-0
  6
CONTINUOUS
 62
    7
 10
27259.523
 20
100179.36
 11
28590.878
 21
100179.36
  0
LINE
  8
0-0
  6
CONTINUOUS
 62
    7
 10
27259.523
 20
100179.36
 11
27259.523
 21
100336.82
  0
LINE
  8
0-0
  6
CONTINUOUS
 62
    7
 10
30335.071
 20
100336.82
 11
29598.196
 21
100336.82
  0
LINE
  8
0-0
  6
CONTINUOUS
 62
    7
 10
30335.071
 20
100179.36
 11
29003.707
 21
100179.36
  0
LINE
  8
0-0
  6
CONTINUOUS
 62
    7
 10
30335.071
 20
100179.36
 11
30335.071
 21
100336.82
  0
LINE
  8
0-0
  6
CONTINUOUS
 62
    7
 10
37297.295
 20
66808.402
 11
37297.295
 21
73793.074
  0
LINE
  8
0-0
  6
CONTINUOUS
 62
    7
 10
24735.172
 20
84678.515
 11
24735.172
 21
85739.151
  0
LINE
  8
0-0
  6
CONTINUOUS
 62
    7
 10
24735.172
 20
85739.151
 11
32859.413
 21
85739.151
  0
LINE
  8
0-0
  6
CONTINUOUS
 62
    7
 10
32859.413
 20
84678.515
 11
32859.413
 21
85739.151
  0
LINE
  8
0-0
  6
CONTINUOUS
 62
    7
 10
25603.408
 20
84678.515
 11
25603.408
 21
85739.151
  0
LINE
  8
0-0
  6
CONTINUOUS
 62
    7
 10
26471.655
 20
84678.515
 11
26471.655
 21
85739.151
  0
LINE
  8
0-0
  6
CONTINUOUS
 62
    7
 10
27339.882
 20
84678.515
 11
27339.882
 21
85739.151
  0
LINE
  8
0-0
  6
CONTINUOUS
 62
    7
 10
28208.118
 20
84678.515
 11
28208.118
 21
85739.151
  0
LINE
  8
0-0
  6
CONTINUOUS
 62
    7
 10
29076.355
 20
84678.515
 11
29076.355
 21
85739.151
  0
LINE
  8
0-0
  6
CONTINUOUS
 62
    7
 10
29944.601
 20
84678.515
 11
29944.601
 21
85739.151
  0
LINE
  8
0-0
  6
CONTINUOUS
 62
    7
 10
30812.828
 20
84678.515
 11
30812.828
 21
85739.151
  0
LINE
  8
0-0
  6
CONTINUOUS
 62
    7
 10
31681.065
 20
84678.515
 11
31681.065
 21
85739.151
  0
LINE
  8
0-0
  6
CONTINUOUS
 62
    7
 10
32549.311
 20
84678.515
 11
32549.311
 21
85739.151
  0
LINE
  8
0-0
  6
CONTINUOUS
 62
    7
 10
49429.873
 20
85130.598
 11
52451.677
 21
89901.693
  0
LINE
  8
0-0
  6
CONTINUOUS
 62
    7
 10
52451.677
 20
89901.693
 11
54849.349
 21
93376.342
  0
LINE
  8
0-0
  6
CONTINUOUS
 62
    7
 10
54849.349
 20
93376.342
 11
59106.972
 21
99550.697
  0
LINE
  8
0-0
  6
CONTINUOUS
 62
    7
 10
59106.972
 20
99550.697
 11
61006.206
 21
102362.72
  0
LINE
  8
0-0
  6
CONTINUOUS
 62
    7
 10
61006.206
 20
102362.72
 11
62938.449
 21
104937.26
  0
LINE
  8
0-0
  6
CONTINUOUS
 62
    7
 10
62938.449
 20
104937.26
 11
64114.807
 21
106479.28
  0
LINE
  8
0-0
  6
CONTINUOUS
 62
    7
 10
64114.807
 20
106479.28
 11
65530.742
 21
108268.89
  0
LINE
  8
0-0
  6
CONTINUOUS
 62
    7
 10
65530.742
 20
108268.89
 11
66205.08
 21
109182.63
  0
LINE
  8
0-0
  6
CONTINUOUS
 62
    7
 10
66205.08
 20
109182.63
 11
66179.945
 21
109521.01
  0
LINE
  8
0-0
  6
CONTINUOUS
 62
    7
 10
66179.945
 20
109521.01
 11
66308.643
 21
109754.97
  0
LINE
  8
0-0
  6
CONTINUOUS
 62
    7
 10
66308.643
 20
109754.97
 11
66485.315
 21
109881.66
  0
LINE
  8
0-0
  6
CONTINUOUS
 62
    7
 10
66485.315
 20
109881.66
 11
66607.62
 21
109961.81
  0
LINE
  8
0-0
  6
CONTINUOUS
 62
    7
 10
66607.62
 20
109961.81
 11
66883
 21
110062.05
  0
LINE
  8
0-0
  6
CONTINUOUS
 62
    7
 10
66883
 20
110062.05
 11
67023.962
 21
110042.06
  0
LINE
  8
0-0
  6
CONTINUOUS
 62
    7
 10
67023.962
 20
110042.06
 11
67216.44
 21
109880.45
  0
LINE
  8
0-0
  6
CONTINUOUS
 62
    7
 10
67216.44
 20
109880.45
 11
67338.141
 21
109595.05
  0
LINE
  8
0-0
  6
CONTINUOUS
 62
    7
 10
67338.141
 20
109595.05
 11
67333.252
 21
109192.27
  0
LINE
  8
0-0
  6
CONTINUOUS
 62
    7
 10
67333.252
 20
109192.27
 11
67060.746
 21
108986.15
  0
LINE
  8
0-0
  6
CONTINUOUS
 62
    7
 10
67060.746
 20
108986.15
 11
66840.431
 21
108905.98
  0
LINE
  8
0-0
  6
CONTINUOUS
 62
    7
 10
66840.431
 20
108905.98
 11
64390.712
 21
104815.36
  0
LINE
  8
0-0
  6
CONTINUOUS
 62
    7
 10
64390.712
 20
104815.36
 11
62776.846
 21
102223.04
  0
LINE
  8
0-0
  6
CONTINUOUS
 62
    7
 10
62776.846
 20
102223.04
 11
60442.117
 21
98771.321
  0
LINE
  8
0-0
  6
CONTINUOUS
 62
    7
 10
60442.117
 20
98771.321
 11
54963.152
 21
90762.328
  0
LINE
  8
0-0
  6
CONTINUOUS
 62
    7
 10
54963.152
 20
90762.328
 11
52455.983
 21
87417.14
  0
LINE
  8
0-0
  6
CONTINUOUS
 62
    7
 10
52455.983
 20
87417.14
 11
49805.021
 21
84099.823
  0
LINE
  8
0-0
  6
CONTINUOUS
 62
    7
 10
53096.664
 20
88496.858
 11
52258.753
 21
89109.707
  0
LINE
  8
0-0
  6
CONTINUOUS
 62
    7
 10
52258.753
 20
89109.707
 11
54266.688
 21
92112.795
  0
LINE
  8
0-0
  6
CONTINUOUS
 62
    7
 10
54266.688
 20
92112.795
 11
57427.385
 21
96649.297
  0
LINE
  8
0-0
  6
CONTINUOUS
 62
    7
 10
57427.385
 20
96649.297
 11
59123.55
 21
99137.928
  0
LINE
  8
0-0
  6
CONTINUOUS
 62
    7
 10
59123.55
 20
99137.928
 11
61843.028
 21
103050.46
  0
LINE
  8
0-0
  6
CONTINUOUS
 62
    7
 10
61843.028
 20
103050.46
 11
63576.408
 21
105436.79
  0
LINE
  8
0-0
  6
CONTINUOUS
 62
    7
 10
63576.408
 20
105436.79
 11
64273.322
 21
105039.96
  0
LINE
  8
0-0
  6
CONTINUOUS
 62
    7
 10
64273.322
 20
105039.96
 11
62412.758
 21
102072.7
  0
LINE
  8
0-0
  6
CONTINUOUS
 62
    7
 10
62412.758
 20
102072.7
 11
60931.801
 21
99947.551
  0
LINE
  8
0-0
  6
CONTINUOUS
 62
    7
 10
60931.801
 20
99947.551
 11
58951.768
 21
96990.269
  0
LINE
  8
0-0
  6
CONTINUOUS
 62
    7
 10
58951.768
 20
96990.269
 11
57043.195
 21
94228.287
  0
LINE
  8
0-0
  6
CONTINUOUS
 62
    7
 10
57043.195
 20
94228.287
 11
55252.646
 21
91607.285
  0
LINE
  8
0-0
  6
CONTINUOUS
 62
    7
 10
55252.646
 20
91607.285
 11
53075.186
 21
88506.884
  0
LINE
  8
0-0
  6
CONTINUOUS
 62
    7
 10
52657.052
 20
89655.658
 11
53507.117
 21
89082.885
  0
LINE
  8
0-0
  6
CONTINUOUS
 62
    7
 10
53343.529
 20
90707.495
 11
54227.216
 21
90164.771
  0
LINE
  8
0-0
  6
CONTINUOUS
 62
    7
 10
54060.026
 20
91823.706
 11
54972.307
 21
91202.296
  0
LINE
  8
0-0
  6
CONTINUOUS
 62
    7
 10
54850.2
 20
92957.832
 11
55753.187
 21
92386.503
  0
LINE
  8
0-0
  6
CONTINUOUS
 62
    7
 10
55746.19
 20
94290.859
 11
56579.785
 21
93738.831
  0
LINE
  8
0-0
  6
CONTINUOUS
 62
    7
 10
56567.829
 20
95436.446
 11
57458.666
 21
94825.052
  0
LINE
  8
0-0
  6
CONTINUOUS
 62
    7
 10
57228.587
 20
96363.079
 11
58086.485
 21
95793.175
  0
LINE
  8
0-0
  6
CONTINUOUS
 62
    7
 10
58380.587
 20
98020.965
 11
59234.22
 21
97413.866
  0
LINE
  8
0-0
  6
CONTINUOUS
 62
    7
 10
59139.278
 20
99143.649
 11
59985.744
 21
98605.2
  0
LINE
  8
0-0
  6
CONTINUOUS
 62
    7
 10
60052.429
 20
100527.47
 11
60926.08
 21
99963.288
  0
LINE
  8
0-0
  6
CONTINUOUS
 62
    7
 10
60967.734
 20
101831.89
 11
61805.61
 21
101317.08
  0
LINE
  8
0-0
  6
CONTINUOUS
 62
    7
 10
57597.559
 20
96916.196
 11
58486.962
 21
96357.714
  0
LINE
  8
0-0
  6
CONTINUOUS
 62
    7
 10
62760.47
 20
104373.49
 11
63517.487
 21
103909.43
  0
LINE
  8
0-0
  6
CONTINUOUS
 62
    7
 10
62791.93
 20
104384.93
 11
64226.111
 21
105022.77
  0
LINE
  8
0-0
  6
CONTINUOUS
 62
    7
 10
62791.93
 20
104384.93
 11
62730.238
 21
102571.42
  0
LINE
  8
0-0
  6
CONTINUOUS
 62
    7
 10
62730.238
 20
102571.42
 11
61928.117
 21
103134.91
  0
LINE
  8
0-0
  6
CONTINUOUS
 62
    7
 10
62695.176
 20
102594.3
 11
61012.798
 21
101830.48
  0
LINE
  8
0-0
  6
CONTINUOUS
 62
    7
 10
61012.798
 20
101830.48
 11
60931.801
 21
99947.551
  0
LINE
  8
0-0
  6
CONTINUOUS
 62
    7
 10
60931.801
 20
99947.551
 11
59176.478
 21
99139.373
  0
LINE
  8
0-0
  6
CONTINUOUS
 62
    7
 10
59139.278
 20
99143.649
 11
59265.69
 21
97425.328
  0
LINE
  8
0-0
  6
CONTINUOUS
 62
    7
 10
59265.69
 20
97425.328
 11
57609.011
 21
96884.702
  0
LINE
  8
0-0
  6
CONTINUOUS
 62
    7
 10
57260.051
 20
96374.52
 11
57458.666
 21
94825.052
  0
LINE
  8
0-0
  6
CONTINUOUS
 62
    7
 10
57458.666
 20
94825.052
 11
55779.109
 21
94249.388
  0
LINE
  8
0-0
  6
CONTINUOUS
 62
    7
 10
55779.109
 20
94249.388
 11
55780.376
 21
92360.769
  0
LINE
  8
0-0
  6
CONTINUOUS
 62
    7
 10
55780.376
 20
92360.769
 11
54065.757
 21
91807.969
  0
LINE
  8
0-0
  6
CONTINUOUS
 62
    7
 10
54065.757
 20
91807.969
 11
54227.216
 21
90164.771
  0
LINE
  8
0-0
  6
CONTINUOUS
 62
    7
 10
54227.216
 20
90164.771
 11
52657.052
 21
89655.658
  0
LINE
  8
0-0
  6
CONTINUOUS
 62
    7
 10
52657.052
 20
89655.658
 11
52853.381
 21
88675.638
  0
LINE
  8
0-0
  6
CONTINUOUS
 62
    7
 10
44797.562
 20
86148.575
 11
46195.904
 21
86148.575
  0
LINE
  8
0-0
  6
CONTINUOUS
 62
    7
 10
46195.904
 20
86148.575
 11
46195.904
 21
83209.505
  0
LINE
  8
0-0
  6
CONTINUOUS
 62
    7
 10
46195.904
 20
83209.505
 11
44797.562
 21
83209.505
  0
LINE
  8
0-0
  6
CONTINUOUS
 62
    7
 10
44797.562
 20
83209.505
 11
44797.562
 21
86148.575
  0
LINE
  8
0-0
  6
CONTINUOUS
 62
    7
 10
39555.787
 20
86115.092
 11
42352.51
 21
86115.092
  0
LINE
  8
0-0
  6
CONTINUOUS
 62
    7
 10
42352.51
 20
86115.092
 11
39555.787
 21
83418.849
  0
LINE
  8
0-0
  6
CONTINUOUS
 62
    7
 10
39555.787
 20
83418.849
 11
42352.51
 21
83418.849
  0
LINE
  8
0-0
  6
CONTINUOUS
 62
    7
 10
42352.51
 20
83418.849
 11
39555.787
 21
86115.092
  0
LINE
  8
0-0
  6
CONTINUOUS
 62
    7
 10
39555.787
 20
86115.092
 11
39555.787
 21
83418.849
  0
LINE
  8
0-0
  6
CONTINUOUS
 62
    7
 10
42352.51
 20
86115.092
 11
42352.51
 21
83418.849
  0
LINE
  8
0-0
  6
CONTINUOUS
 62
    7
 10
39555.787
 20
86115.092
 11
42352.51
 21
86115.092
  0
LINE
  8
0-0
  6
CONTINUOUS
 62
    7
 10
42352.51
 20
86115.092
 11
42352.51
 21
83418.849
  0
LINE
  8
0-0
  6
CONTINUOUS
 62
    7
 10
42352.51
 20
83418.849
 11
39555.787
 21
83418.849
  0
LINE
  8
0-0
  6
CONTINUOUS
 62
    7
 10
39555.787
 20
83418.849
 11
39555.787
 21
86115.092
  0
LINE
  8
0-0
  6
CONTINUOUS
 62
    7
 10
46756.929
 20
86148.575
 11
48800.04
 21
86148.575
  0
LINE
  8
0-0
  6
CONTINUOUS
 62
    7
 10
48800.04
 20
86148.575
 11
49201.961
 21
84214.308
  0
LINE
  8
0-0
  6
CONTINUOUS
 62
    7
 10
49201.961
 20
84214.308
 11
46756.929
 21
84214.308
  0
LINE
  8
0-0
  6
CONTINUOUS
 62
    7
 10
46756.929
 20
84214.308
 11
46756.929
 21
86148.575
  0
LINE
  8
0-0
  6
CONTINUOUS
 62
    7
 10
38617.961
 20
88610.354
 11
39011.499
 21
88610.354
  0
LINE
  8
0-0
  6
CONTINUOUS
 62
    7
 10
39011.499
 20
88610.354
 11
39011.499
 21
86650.987
  0
LINE
  8
0-0
  6
CONTINUOUS
 62
    7
 10
39011.499
 20
86650.987
 11
38617.961
 21
86650.987
  0
LINE
  8
0-0
  6
CONTINUOUS
 62
    7
 10
38617.961
 20
86650.987
 11
38617.961
 21
88610.354
  0
LINE
  8
0-0
  6
CONTINUOUS
 62
    7
 10
39287.83
 20
88920.188
 11
41925.469
 21
86650.987
  0
LINE
  8
0-0
  6
CONTINUOUS
 62
    7
 10
39103.636
 20
88668.987
 11
41406.32
 21
86650.987
  0
LINE
  8
0-0
  6
CONTINUOUS
 62
    7
 10
44010.456
 20
81124.532
 11
43868.109
 21
81124.532
  0
LINE
  8
0-0
  6
CONTINUOUS
 62
    7
 10
38818.931
 20
82916.442
 11
38525.854
 21
82916.442
  0
LINE
  8
0-0
  6
CONTINUOUS
 62
    7
 10
38525.854
 20
82916.442
 11
38525.854
 21
83167.628
  0
LINE
  8
0-0
  6
CONTINUOUS
 62
    7
 10
38525.854
 20
82916.442
 11
37814.108
 21
82916.442
  0
LINE
  8
0-0
  6
CONTINUOUS
 62
    7
 10
37814.108
 20
82916.442
 11
37814.108
 21
82179.576
  0
LINE
  8
0-0
  6
CONTINUOUS
 62
    7
 10
37814.108
 20
82179.576
 11
38818.931
 21
82179.576
  0
LINE
  8
0-0
  6
CONTINUOUS
 62
    7
 10
48800.04
 20
81266.88
 11
48800.04
 21
81124.532
  0
LINE
  8
0-0
  6
CONTINUOUS
 62
    7
 10
48800.04
 20
81124.532
 11
43968.579
 21
81124.532
  0
LINE
  8
0-0
  6
CONTINUOUS
 62
    7
 10
43968.579
 20
81124.532
 11
43968.579
 21
81266.88
  0
LINE
  8
0-0
  6
CONTINUOUS
 62
    7
 10
38818.931
 20
82179.576
 11
39932.589
 21
82179.576
  0
LINE
  8
0-0
  6
CONTINUOUS
 62
    7
 10
43968.579
 20
81266.88
 11
43968.579
 21
81518.081
  0
LINE
  8
0-0
  6
CONTINUOUS
 62
    7
 10
43968.579
 20
81518.081
 11
48800.04
 21
81518.081
  0
LINE
  8
0-0
  6
CONTINUOUS
 62
    7
 10
48800.04
 20
81518.081
 11
48800.04
 21
81266.88
  0
LINE
  8
0-0
  6
CONTINUOUS
 62
    7
 10
44203.024
 20
82916.442
 11
38818.931
 21
82916.442
  0
LINE
  8
0-0
  6
CONTINUOUS
 62
    7
 10
39932.589
 20
82179.576
 11
44203.024
 21
82179.576
  0
LINE
  8
0-0
  6
CONTINUOUS
 62
    7
 10
45392.061
 20
82916.442
 11
44203.024
 21
82916.442
  0
LINE
  8
0-0
  6
CONTINUOUS
 62
    7
 10
44831.046
 20
82430.787
 11
45107.367
 21
82581.498
  0
LINE
  8
0-0
  6
CONTINUOUS
 62
    7
 10
45107.367
 20
82581.498
 11
45107.367
 21
82882.949
  0
LINE
  8
0-0
  6
CONTINUOUS
 62
    7
 10
45392.061
 20
82305.187
 11
44563.088
 21
82305.187
  0
LINE
  8
0-0
  6
CONTINUOUS
 62
    7
 10
44563.088
 20
82305.187
 11
44546.361
 21
82305.187
  0
LINE
  8
0-0
  6
CONTINUOUS
 62
    7
 10
44203.024
 20
82179.576
 11
44370.491
 21
82179.576
  0
LINE
  8
0-0
  6
CONTINUOUS
 62
    7
 10
44370.491
 20
82179.576
 11
44831.046
 21
82430.787
  0
LINE
  8
0-0
  6
CONTINUOUS
 62
    7
 10
48841.897
 20
82112.589
 11
48841.897
 21
81660.428
  0
LINE
  8
0-0
  6
CONTINUOUS
 62
    7
 10
48841.897
 20
81660.428
 11
44010.456
 21
81660.428
  0
LINE
  8
0-0
  6
CONTINUOUS
 62
    7
 10
44010.456
 20
81660.428
 11
44010.456
 21
82179.576
  0
LINE
  8
0-0
  6
CONTINUOUS
 62
    7
 10
44010.456
 20
82179.576
 11
44043.94
 21
82179.576
  0
LINE
  8
0-0
  6
CONTINUOUS
 62
    7
 10
44043.94
 20
82179.576
 11
44010.456
 21
82179.576
  0
LINE
  8
0-0
  6
CONTINUOUS
 62
    7
 10
38525.854
 20
83167.628
 11
38525.854
 21
86650.987
  0
LINE
  8
0-0
  6
CONTINUOUS
 62
    7
 10
38525.854
 20
86650.987
 11
49001.01
 21
86650.987
  0
LINE
  8
0-0
  6
CONTINUOUS
 62
    7
 10
49001.01
 20
86650.987
 11
49453.182
 21
84214.308
  0
LINE
  8
0-0
  6
CONTINUOUS
 62
    7
 10
49453.182
 20
84214.308
 11
49453.182
 21
82916.442
  0
LINE
  8
0-0
  6
CONTINUOUS
 62
    7
 10
49453.182
 20
82916.442
 11
49361.055
 21
82916.442
  0
LINE
  8
0-0
  6
CONTINUOUS
 62
    7
 10
48012.943
 20
82916.442
 11
45392.061
 21
82916.442
  0
LINE
  8
0-0
  6
CONTINUOUS
 62
    7
 10
48012.943
 20
82305.187
 11
45392.061
 21
82305.187
  0
LINE
  8
0-0
  6
CONTINUOUS
 62
    7
 10
49285.705
 20
82916.442
 11
49285.705
 21
82305.187
  0
LINE
  8
0-0
  6
CONTINUOUS
 62
    7
 10
49285.705
 20
82305.187
 11
48984.244
 21
82305.187
  0
LINE
  8
0-0
  6
CONTINUOUS
 62
    7
 10
48841.897
 20
82305.187
 11
48841.897
 21
82112.589
  0
LINE
  8
0-0
  6
CONTINUOUS
 62
    7
 10
49361.055
 20
82916.442
 11
48012.943
 21
82916.442
  0
LINE
  8
0-0
  6
CONTINUOUS
 62
    7
 10
48984.244
 20
82305.187
 11
48012.943
 21
82305.187
  0
LINE
  8
0-0
  6
CONTINUOUS
 62
    7
 10
38606.242
 20
89496.139
 11
66179.945
 21
109521.01
  0
LINE
  8
0-0
  6
CONTINUOUS
 62
    7
 10
51434.155
 20
69405.402
 11
11999.999
 21
69405.402
  0
CIRCLE
  8
0-0
  6
CONTINUOUS
 62
    7
 10
68155.89
 20
82484.684
 40
197.56576
  0
CIRCLE
  8
0-0
  6
CONTINUOUS
 62
    7
 10
68155.89
 20
82484.684
 40
520.85527
  0
CIRCLE
  8
0-0
  6
CONTINUOUS
 62
    7
 10
103675.93
 20
81890.166
 40
197.56576
  0
CIRCLE
  8
0-0
  6
CONTINUOUS
 62
    7
 10
103675.93
 20
81890.166
 40
287.3684
  0
CIRCLE
  8
0-0
  6
CONTINUOUS
 62
    7
 10
103391.24
 20
94467.056
 40
251.44731
  0
CIRCLE
  8
0-0
  6
CONTINUOUS
 62
    7
 10
63826.822
 20
76254.863
 40
197.56576
  0
CIRCLE
  8
0-0
  6
CONTINUOUS
 62
    7
 10
63826.822
 20
76254.863
 40
538.81577
  0
CIRCLE
  8
0-0
  6
CONTINUOUS
 62
    7
 10
120849.81
 20
98812.861
 40
251.44731
  0
CIRCLE
  8
0-0
  6
CONTINUOUS
 62
    7
 10
120849.81
 20
96920.462
 40
251.44731
  0
ARC
  8
0-0
  6
CONTINUOUS
 62
    7
 10
130797.43
 20
79612.601
 40
179.60525
 50
90
 51
180
  0
ARC
  8
0-0
  6
CONTINUOUS
 62
    7
 10
131299.82
 20
79612.601
 40
179.60525
 50
360
 51
90
  0
ARC
  8
0-0
  6
CONTINUOUS
 62
    7
 10
131299.82
 20
79520.494
 40
179.60525
 50
270
 51
360
  0
ARC
  8
0-0
  6
CONTINUOUS
 62
    7
 10
130797.43
 20
79520.494
 40
179.60525
 50
180
 51
270
  0
ARC
  8
0-0
  6
CONTINUOUS
 62
    7
 10
127640.64
 20
80416.454
 40
305.32893
 50
90
 51
180
  0
ARC
  8
0-0
  6
CONTINUOUS
 62
    7
 10
128930.14
 20
80416.454
 40
305.32893
 50
360
 51
90
  0
ARC
  8
0-0
  6
CONTINUOUS
 62
    7
 10
128930.14
 20
80039.642
 40
305.32893
 50
270
 51
360
  0
ARC
  8
0-0
  6
CONTINUOUS
 62
    7
 10
127640.64
 20
80039.642
 40
305.32893
 50
180
 51
270
  0
ARC
  8
0-0
  6
CONTINUOUS
 62
    7
 10
131157.49
 20
75367.276
 40
179.60525
 50
90
 51
180
  0
ARC
  8
0-0
  6
CONTINUOUS
 62
    7
 10
131986.44
 20
75367.276
 40
179.60525
 50
360
 51
90
  0
ARC
  8
0-0
  6
CONTINUOUS
 62
    7
 10
131986.44
 20
75266.796
 40
179.60525
 50
270
 51
360
  0
ARC
  8
0-0
  6
CONTINUOUS
 62
    7
 10
131157.49
 20
75266.796
 40
179.60525
 50
180
 51
270
  0
CIRCLE
  8
0-0
  6
CONTINUOUS
 62
    7
 10
65802.945
 20
91067.451
 40
251.44731
  0
CIRCLE
  8
0-0
  6
CONTINUOUS
 62
    7
 10
65802.945
 20
89736.066
 40
251.44731
  0
ARC
  8
0-0
  6
CONTINUOUS
 62
    7
 10
56675.915
 20
75928.291
 40
179.60525
 50
90
 51
180
  0
ARC
  8
0-0
  6
CONTINUOUS
 62
    7
 10
57396.034
 20
75928.291
 40
179.60525
 50
360
 51
90
  0
ARC
  8
0-0
  6
CONTINUOUS
 62
    7
 10
57396.034
 20
75911.545
 40
179.60525
 50
270
 51
360
  0
ARC
  8
0-0
  6
CONTINUOUS
 62
    7
 10
56675.915
 20
75911.545
 40
179.60525
 50
180
 51
244.125
  0
ARC
  8
0-0
  6
CONTINUOUS
 62
    7
 10
56675.915
 20
75911.545
 40
179.60525
 50
244.125
 51
270
  0
ARC
  8
0-0
  6
CONTINUOUS
 62
    6
 10
69407.129
 20
52465.559
 40
11865.365
 50
237.00808
 51
267.77366
  0
ARC
  8
0-0
  6
CONTINUOUS
 62
    6
 10
55936.471
 20
49053.067
 40
1991.0846
 50
178.38618
 51
231.44244
  0
ARC
  8
0-0
  6
CONTINUOUS
 62
    6
 10
69407.129
 20
45752.734
 40
11865.365
 50
92.226333
 51
122.99191
  0
ARC
  8
0-0
  6
CONTINUOUS
 62
    6
 10
55936.471
 20
49165.226
 40
1991.0846
 50
128.55755
 51
181.61381
  0
CIRCLE
  8
0-0
  6
CONTINUOUS
 62
    7
 10
75671.023
 20
49109.146
 40
2000
  0
CIRCLE
  8
0-0
  6
CONTINUOUS
 62
    7
 10
112731.3
 20
46072.441
 40
1599.4079
  0
CIRCLE
  8
0-0
  6
DASHED3
 62
    7
 10
75671.023
 20
49109.146
 40
7693.0918
  0
ARC
  8
0-0
  6
CONTINUOUS
 62
    6
 10
125563.42
 20
61246.663
 40
20640.372
 50
269.04574
 51
302.21488
  0
ARC
  8
0-0
  6
CONTINUOUS
 62
    6
 10
125563.42
 20
36971.635
 40
20640.372
 50
57.78511
 51
90.954254
  0
CIRCLE
  8
0-0
  6
CONTINUOUS
 62
    7
 10
124537.9
 20
41288.559
 40
412.7383
  0
CIRCLE
  8
0-0
  6
CONTINUOUS
 62
    7
 10
126352.96
 20
41288.559
 40
412.7383
  0
CIRCLE
  8
0-0
  6
CONTINUOUS
 62
    7
 10
112165.85
 20
41247.053
 40
412.7383
  0
CIRCLE
  8
0-0
  6
CONTINUOUS
 62
    7
 10
113980.91
 20
41247.053
 40
412.7383
  0
CIRCLE
  8
0-0
  6
CONTINUOUS
 62
    7
 10
124537.9
 20
56929.739
 40
412.7383
  0
CIRCLE
  8
0-0
  6
CONTINUOUS
 62
    7
 10
126352.96
 20
56929.739
 40
412.7383
  0
CIRCLE
  8
0-0
  6
CONTINUOUS
 62
    7
 10
112165.85
 20
56971.24
 40
412.7383
  0
CIRCLE
  8
0-0
  6
CONTINUOUS
 62
    7
 10
113980.91
 20
56971.24
 40
412.7383
  0
CIRCLE
  8
0-0
  6
CONTINUOUS
 62
    7
 10
131012.01
 20
56194.016
 40
412.7383
  0
CIRCLE
  8
0-0
  6
CONTINUOUS
 62
    7
 10
132717.61
 20
55573.229
 40
412.7383
  0
CIRCLE
  8
0-0
  6
CONTINUOUS
 62
    7
 10
131012.01
 20
42024.276
 40
412.7383
  0
CIRCLE
  8
0-0
  6
CONTINUOUS
 62
    7
 10
132717.61
 20
42645.063
 40
412.7383
  0
CIRCLE
  8
0-0
  6
CONTINUOUS
 62
    7
 10
69893.868
 20
41362.538
 40
412.7383
  0
CIRCLE
  8
0-0
  6
CONTINUOUS
 62
    7
 10
71708.933
 20
41362.538
 40
412.7383
  0
CIRCLE
  8
0-0
  6
CONTINUOUS
 62
    7
 10
69893.868
 20
56855.754
 40
412.7383
  0
CIRCLE
  8
0-0
  6
CONTINUOUS
 62
    7
 10
71708.933
 20
56855.754
 40
412.7383
  0
CIRCLE
  8
0-0
  6
CONTINUOUS
 62
    7
 10
60916.831
 20
53691.4
 40
412.7383
  0
CIRCLE
  8
0-0
  6
CONTINUOUS
 62
    7
 10
62488.722
 20
54598.93
 40
412.7383
  0
CIRCLE
  8
0-0
  6
CONTINUOUS
 62
    7
 10
60916.831
 20
44526.893
 40
412.7383
  0
CIRCLE
  8
0-0
  6
CONTINUOUS
 62
    7
 10
62488.722
 20
43619.363
 40
412.7383
  0
ARC
  8
0-0
  6
CONTINUOUS
 62
    7
 10
22297.296
 20
66808.402
 40
2000
 50
180
 51
270
  0
ARC
  8
0-0
  6
CONTINUOUS
 62
    7
 10
35297.289
 20
66808.402
 40
2000
 50
270
 51
0
  0
ARC
  8
0-0
  6
CONTINUOUS
 62
    7
 10
29641.537
 20
70931.957
 40
6466.7949
 50
97.501419
 51
136.35694
  0
ARC
  8
0-0
  6
CONTINUOUS
 62
    7
 10
19600.816
 20
83412.673
 40
9644.7856
 50
274.14111
 51
303.76892
  0
ARC
  8
0-0
  6
CONTINUOUS
 62
    7
 10
27953.047
 20
70931.957
 40
6466.7949
 50
43.643051
 51
82.49858
  0
ARC
  8
0-0
  6
CONTINUOUS
 62
    7
 10
37993.769
 20
83412.673
 40
9644.7856
 50
236.23107
 51
265.85888
  0
ARC
  8
0-0
  6
CONTINUOUS
 62
    7
 10
22774.31
 20
68293.882
 40
4953.0936
 50
340.27317
 51
88.387252
  0
ARC
  8
0-0
  6
CONTINUOUS
 62
    7
 10
28236.772
 20
65973.14
 40
1030.1264
 50
140.95579
 51
262.65071
  0
ARC
  8
0-0
  6
CONTINUOUS
 62
    7
 10
34820.284
 20
68293.882
 40
4953.0936
 50
91.612747
 51
199.72682
  0
ARC
  8
0-0
  6
CONTINUOUS
 62
    7
 10
29357.823
 20
65973.14
 40
1030.1264
 50
277.34928
 51
39.044204
  0
CIRCLE
  8
0-0
  6
CONTINUOUS
 62
    7
 10
24502.608
 20
79528.951
 40
586.05926
  0
CIRCLE
  8
0-0
  6
CONTINUOUS
 62
    7
 10
27467.858
 20
79528.951
 40
586.05926
  0
CIRCLE
  8
0-0
  6
CONTINUOUS
 62
    7
 10
33091.986
 20
79528.951
 40
586.05926
  0
CIRCLE
  8
0-0
  6
CONTINUOUS
 62
    7
 10
30126.737
 20
79528.951
 40
586.05926
  0
CIRCLE
  8
0-0
  6
CONTINUOUS
 62
    7
 10
28105.233
 20
98797.748
 40
251.44731
  0
CIRCLE
  8
0-0
  6
CONTINUOUS
 62
    7
 10
28105.233
 20
96905.348
 40
251.44731
  0
CIRCLE
  8
0-0
  6
CONTINUOUS
 62
    7
 10
29489.362
 20
98797.748
 40
251.44731
  0
CIRCLE
  8
0-0
  6
CONTINUOUS
 62
    7
 10
29489.362
 20
96905.348
 40
251.44731
  0
CIRCLE
  8
0-0
  6
CONTINUOUS
 62
    7
 10
38818.931
 20
89062.535
 40
197.56576
  0
CIRCLE
  8
0-0
  6
CONTINUOUS
 62
    7
 10
38818.931
 20
89062.535
 40
520.85527
  0
CIRCLE
  8
0-0
  6
CONTINUOUS
 62
    7
 10
66770.885
 20
109415.31
 40
251.44731
  0
ENDSEC
  0
EOF
