  0
SECTION
  2
HEADER
  9
$EXTMIN
 10
0
 20
0
  9
$EXTMAX
 10
59400
 20
42000
  0
ENDSEC
  0
SECTION
  2
TABLES
  0
TABLE
  2
LTYPE
 70
     9
  0
LTYPE
  2
CONTINUOUS
 70
    64
  3
実線
 72
    65
 73
     0
 40
0.0
  0
LTYPE
  2
DASHED1
 70
    64
  3
--  --  --  --  --  --  --  --  
 72
    65
 73
     2
 40
2.5
 49
1.25
 49
-1.25
  0
LTYPE
  2
DASHED2
 70
    64
  3
----    ----    ----    ----    
 72
    65
 73
     2
 40
5.0
 49
2.5
 49
-2.5
  0
LTYPE
  2
DASHED3
 70
    64
  3
------  ------  ------  ------  
 72
    65
 73
     2
 40
5.0
 49
3.75
 49
-1.25
  0
LTYPE
  2
CENTER1
 70
    64
  3
----- - ----- - ----- - ----- - 
 72
    65
 73
     4
 40
10.0
 49
6.25
 49
-1.25
 49
1.25
 49
-1.25
  0
LTYPE
  2
CENTER2
 70
    64
  3
----------  --  ----------  --  
 72
    65
 73
     4
 40
20.0
 49
12.5
 49
-2.5
 49
2.5
 49
-2.5
  0
LTYPE
  2
PHANTOM1
 70
    64
  3
--- - - --- - - --- - - --- - - 
 72
    65
 73
     6
 40
10.0
 49
3.25
 49
-1.25
 49
1.25
 49
-1.25
 49
1.25
 49
-1.25
  0
LTYPE
  2
PHANTOM2
 70
    64
  3
--------  -  -  --------  -  -  
 72
    65
 73
     6
 40
20.0
 49
10.0
 49
-2.5
 49
1.25
 49
-2.5
 49
1.25
 49
-2.5
  0
LTYPE
  2
DOT
 70
    64
  3
-   -   -   -   -   -   -   -   
 72
    65
 73
     2
 40
2.5
 49
0.625
 49
-1.875
  0
ENDTAB
  0
TABLE
  2
STYLE
 70
    1
  0
STYLE
  2
STANDARD
 70
    64
 40
0.0
 41
1.0
 42
0.0
 50
0.0
 71
     0
  3
TXT
  4
BIGFONT
  0
ENDTAB
  0
TABLE
  2
LAYER
 70
    2
  0
LAYER
  2
0-0
 70
   64
 62
    7
  6
CONTINUOUS
  0
LAYER
  2
ADD_LINE
 70
   64
 62
    7
  6
CONTINUOUS
  0
ENDTAB
  0
ENDSEC
  0
SECTION
  2
ENTITIES
  0
LINE
  8
0-0
  6
CONTINUOUS
 62
    7
 10
24859.154
 20
29194.564
 11
24859.154
 21
29432.602
  0
LINE
  8
0-0
  6
CONTINUOUS
 62
    7
 10
25396.261
 20
28734.078
 11
25109.76
 21
30433.328
  0
LINE
  8
0-0
  6
CONTINUOUS
 62
    7
 10
25804.027
 20
29024.425
 11
25338.544
 21
30433.328
  0
LINE
  8
0-0
  6
CONTINUOUS
 62
    7
 10
25472.201
 20
28733.504
 11
25185.602
 21
30433.328
  0
LINE
  8
0-0
  6
CONTINUOUS
 62
    7
 10
25036.124
 20
29397.187
 11
25178.267
 21
29176.916
  0
LINE
  8
0-0
  6
CONTINUOUS
 62
    7
 10
25178.267
 20
29176.916
 11
25294.226
 21
28939.772
  0
LINE
  8
0-0
  6
CONTINUOUS
 62
    7
 10
25294.226
 20
28939.772
 11
25380.793
 21
28692.322
  0
LINE
  8
0-0
  6
CONTINUOUS
 62
    7
 10
25380.793
 20
28692.322
 11
25411.642
 21
28604.124
  0
LINE
  8
0-0
  6
CONTINUOUS
 62
    7
 10
25411.642
 20
28604.124
 11
25432.016
 21
28512.255
  0
LINE
  8
0-0
  6
CONTINUOUS
 62
    7
 10
25432.016
 20
28512.255
 11
25441.342
 21
28419.287
  0
LINE
  8
0-0
  6
CONTINUOUS
 62
    7
 10
25036.124
 20
29381.705
 11
25187.026
 21
29140.644
  0
LINE
  8
0-0
  6
CONTINUOUS
 62
    7
 10
25187.026
 20
29140.644
 11
25307.423
 21
28880.504
  0
LINE
  8
0-0
  6
CONTINUOUS
 62
    7
 10
25307.423
 20
28880.504
 11
25393.539
 21
28609.457
  0
LINE
  8
0-0
  6
CONTINUOUS
 62
    7
 10
25393.539
 20
28609.457
 11
25413.108
 21
28547.866
  0
LINE
  8
0-0
  6
CONTINUOUS
 62
    7
 10
25413.108
 20
28547.866
 11
25424.887
 21
28483.807
  0
LINE
  8
0-0
  6
CONTINUOUS
 62
    7
 10
25424.887
 20
28483.807
 11
25428.499
 21
28419.287
  0
LINE
  8
0-0
  6
CONTINUOUS
 62
    7
 10
24322.053
 20
28734.078
 11
24608.547
 21
30433.328
  0
LINE
  8
0-0
  6
CONTINUOUS
 62
    7
 10
24246.205
 20
28734.078
 11
24532.706
 21
30433.328
  0
LINE
  8
0-0
  6
CONTINUOUS
 62
    7
 10
23914.28
 20
29024.425
 11
24379.763
 21
30433.328
  0
LINE
  8
0-0
  6
CONTINUOUS
 62
    7
 10
23679.029
 20
28772.016
 11
24238.975
 21
30433.328
  0
LINE
  8
0-0
  6
CONTINUOUS
 62
    7
 10
24435.013
 20
28938.365
 11
24685.27
 21
30422.647
  0
LINE
  8
0-0
  6
CONTINUOUS
 62
    7
 10
25283.301
 20
28938.365
 11
25033.044
 21
30422.647
  0
LINE
  8
0-0
  6
CONTINUOUS
 62
    7
 10
24682.191
 20
29397.187
 11
24540.048
 21
29176.916
  0
LINE
  8
0-0
  6
CONTINUOUS
 62
    7
 10
24540.048
 20
29176.916
 11
24424.081
 21
28939.772
  0
LINE
  8
0-0
  6
CONTINUOUS
 62
    7
 10
24424.081
 20
28939.772
 11
24337.517
 21
28692.322
  0
LINE
  8
0-0
  6
CONTINUOUS
 62
    7
 10
24337.517
 20
28692.322
 11
24306.666
 21
28604.124
  0
LINE
  8
0-0
  6
CONTINUOUS
 62
    7
 10
24306.666
 20
28604.124
 11
24286.291
 21
28512.255
  0
LINE
  8
0-0
  6
CONTINUOUS
 62
    7
 10
24286.291
 20
28512.255
 11
24276.969
 21
28419.287
  0
LINE
  8
0-0
  6
CONTINUOUS
 62
    7
 10
24682.191
 20
29381.705
 11
24531.288
 21
29140.644
  0
LINE
  8
0-0
  6
CONTINUOUS
 62
    7
 10
24531.288
 20
29140.644
 11
24410.888
 21
28880.504
  0
LINE
  8
0-0
  6
CONTINUOUS
 62
    7
 10
24410.888
 20
28880.504
 11
24324.772
 21
28609.457
  0
LINE
  8
0-0
  6
CONTINUOUS
 62
    7
 10
24324.772
 20
28609.457
 11
24305.199
 21
28547.866
  0
LINE
  8
0-0
  6
CONTINUOUS
 62
    7
 10
24305.199
 20
28547.866
 11
24293.423
 21
28483.807
  0
LINE
  8
0-0
  6
CONTINUOUS
 62
    7
 10
24293.423
 20
28483.807
 11
24289.808
 21
28419.287
  0
LINE
  8
0-0
  6
CONTINUOUS
 62
    7
 10
24783.316
 20
29235.848
 11
24800.649
 21
29240.32
  0
LINE
  8
0-0
  6
CONTINUOUS
 62
    7
 10
24800.649
 20
29240.32
 11
24816.74
 21
29254.356
  0
LINE
  8
0-0
  6
CONTINUOUS
 62
    7
 10
24816.74
 20
29254.356
 11
24826.815
 21
29274.111
  0
LINE
  8
0-0
  6
CONTINUOUS
 62
    7
 10
24826.815
 20
29274.111
 11
24830.584
 21
29299.035
  0
LINE
  8
0-0
  6
CONTINUOUS
 62
    7
 10
24830.584
 20
29299.035
 11
24826.815
 21
29323.955
  0
LINE
  8
0-0
  6
CONTINUOUS
 62
    7
 10
24826.815
 20
29323.955
 11
24816.74
 21
29343.713
  0
LINE
  8
0-0
  6
CONTINUOUS
 62
    7
 10
24816.74
 20
29343.713
 11
24800.649
 21
29357.748
  0
LINE
  8
0-0
  6
CONTINUOUS
 62
    7
 10
24800.649
 20
29357.748
 11
24783.316
 21
29362.22
  0
LINE
  8
0-0
  6
CONTINUOUS
 62
    7
 10
24783.316
 20
29362.22
 11
24765.972
 21
29357.748
  0
LINE
  8
0-0
  6
CONTINUOUS
 62
    7
 10
24765.972
 20
29357.748
 11
24749.889
 21
29343.713
  0
LINE
  8
0-0
  6
CONTINUOUS
 62
    7
 10
24749.889
 20
29343.713
 11
24739.813
 21
29323.955
  0
LINE
  8
0-0
  6
CONTINUOUS
 62
    7
 10
24739.813
 20
29323.955
 11
24736.044
 21
29299.035
  0
LINE
  8
0-0
  6
CONTINUOUS
 62
    7
 10
24736.044
 20
29299.035
 11
24739.813
 21
29274.111
  0
LINE
  8
0-0
  6
CONTINUOUS
 62
    7
 10
24739.813
 20
29274.111
 11
24749.889
 21
29254.356
  0
LINE
  8
0-0
  6
CONTINUOUS
 62
    7
 10
24749.889
 20
29254.356
 11
24765.972
 21
29240.32
  0
LINE
  8
0-0
  6
CONTINUOUS
 62
    7
 10
24765.972
 20
29240.32
 11
24783.316
 21
29235.848
  0
LINE
  8
0-0
  6
CONTINUOUS
 62
    7
 10
24749.003
 20
29362.22
 11
24731.67
 21
29357.748
  0
LINE
  8
0-0
  6
CONTINUOUS
 62
    7
 10
24731.67
 20
29357.748
 11
24715.579
 21
29343.713
  0
LINE
  8
0-0
  6
CONTINUOUS
 62
    7
 10
24715.579
 20
29343.713
 11
24705.504
 21
29323.955
  0
LINE
  8
0-0
  6
CONTINUOUS
 62
    7
 10
24705.504
 20
29323.955
 11
24701.732
 21
29299.035
  0
LINE
  8
0-0
  6
CONTINUOUS
 62
    7
 10
24701.732
 20
29299.035
 11
24705.504
 21
29274.111
  0
LINE
  8
0-0
  6
CONTINUOUS
 62
    7
 10
24705.504
 20
29274.111
 11
24715.579
 21
29254.356
  0
LINE
  8
0-0
  6
CONTINUOUS
 62
    7
 10
24715.579
 20
29254.356
 11
24731.67
 21
29240.32
  0
LINE
  8
0-0
  6
CONTINUOUS
 62
    7
 10
24731.67
 20
29240.32
 11
24749.003
 21
29235.848
  0
LINE
  8
0-0
  6
CONTINUOUS
 62
    7
 10
24690.617
 20
29177.71
 11
24690.617
 21
29488.09
  0
LINE
  8
0-0
  6
CONTINUOUS
 62
    7
 10
24682.191
 20
29177.71
 11
24682.191
 21
29488.09
  0
LINE
  8
0-0
  6
CONTINUOUS
 62
    7
 10
24934.998
 20
29235.848
 11
24952.335
 21
29240.32
  0
LINE
  8
0-0
  6
CONTINUOUS
 62
    7
 10
24952.335
 20
29240.32
 11
24968.422
 21
29254.356
  0
LINE
  8
0-0
  6
CONTINUOUS
 62
    7
 10
24968.422
 20
29254.356
 11
24978.501
 21
29274.111
  0
LINE
  8
0-0
  6
CONTINUOUS
 62
    7
 10
24978.501
 20
29274.111
 11
24982.27
 21
29299.035
  0
LINE
  8
0-0
  6
CONTINUOUS
 62
    7
 10
24982.27
 20
29299.035
 11
24978.501
 21
29323.955
  0
LINE
  8
0-0
  6
CONTINUOUS
 62
    7
 10
24978.501
 20
29323.955
 11
24968.422
 21
29343.713
  0
LINE
  8
0-0
  6
CONTINUOUS
 62
    7
 10
24968.422
 20
29343.713
 11
24952.335
 21
29357.748
  0
LINE
  8
0-0
  6
CONTINUOUS
 62
    7
 10
24952.335
 20
29357.748
 11
24934.998
 21
29362.22
  0
LINE
  8
0-0
  6
CONTINUOUS
 62
    7
 10
24934.998
 20
29362.22
 11
24917.658
 21
29357.748
  0
LINE
  8
0-0
  6
CONTINUOUS
 62
    7
 10
24917.658
 20
29357.748
 11
24901.571
 21
29343.713
  0
LINE
  8
0-0
  6
CONTINUOUS
 62
    7
 10
24901.571
 20
29343.713
 11
24891.5
 21
29323.955
  0
LINE
  8
0-0
  6
CONTINUOUS
 62
    7
 10
24891.5
 20
29323.955
 11
24887.727
 21
29299.035
  0
LINE
  8
0-0
  6
CONTINUOUS
 62
    7
 10
24887.727
 20
29299.035
 11
24891.5
 21
29274.111
  0
LINE
  8
0-0
  6
CONTINUOUS
 62
    7
 10
24891.5
 20
29274.111
 11
24901.571
 21
29254.356
  0
LINE
  8
0-0
  6
CONTINUOUS
 62
    7
 10
24901.571
 20
29254.356
 11
24917.658
 21
29240.32
  0
LINE
  8
0-0
  6
CONTINUOUS
 62
    7
 10
24917.658
 20
29240.32
 11
24934.998
 21
29235.848
  0
LINE
  8
0-0
  6
CONTINUOUS
 62
    7
 10
24969.304
 20
29235.848
 11
24986.644
 21
29240.32
  0
LINE
  8
0-0
  6
CONTINUOUS
 62
    7
 10
24986.644
 20
29240.32
 11
25002.735
 21
29254.356
  0
LINE
  8
0-0
  6
CONTINUOUS
 62
    7
 10
25002.735
 20
29254.356
 11
25012.803
 21
29274.111
  0
LINE
  8
0-0
  6
CONTINUOUS
 62
    7
 10
25012.803
 20
29274.111
 11
25016.575
 21
29299.035
  0
LINE
  8
0-0
  6
CONTINUOUS
 62
    7
 10
25016.575
 20
29299.035
 11
25012.803
 21
29323.955
  0
LINE
  8
0-0
  6
CONTINUOUS
 62
    7
 10
25012.803
 20
29323.955
 11
25002.735
 21
29343.713
  0
LINE
  8
0-0
  6
CONTINUOUS
 62
    7
 10
25002.735
 20
29343.713
 11
24986.644
 21
29357.748
  0
LINE
  8
0-0
  6
CONTINUOUS
 62
    7
 10
24986.644
 20
29357.748
 11
24969.304
 21
29362.22
  0
LINE
  8
0-0
  6
CONTINUOUS
 62
    7
 10
25027.697
 20
29177.71
 11
25027.697
 21
29488.09
  0
LINE
  8
0-0
  6
CONTINUOUS
 62
    7
 10
25036.124
 20
29177.71
 11
25036.124
 21
29488.09
  0
LINE
  8
0-0
  6
CONTINUOUS
 62
    7
 10
26039.285
 20
28772.016
 11
25479.333
 21
30433.328
  0
LINE
  8
0-0
  6
CONTINUOUS
 62
    7
 10
24758.718
 20
27548.417
 11
24768.299
 21
27585.582
  0
LINE
  8
0-0
  6
CONTINUOUS
 62
    7
 10
24690.617
 20
29194.564
 11
24859.154
 21
29194.564
  0
LINE
  8
0-0
  6
CONTINUOUS
 62
    7
 10
24682.191
 20
29177.71
 11
24859.154
 21
29177.71
  0
LINE
  8
0-0
  6
CONTINUOUS
 62
    7
 10
24749.003
 20
29235.848
 11
24783.316
 21
29235.848
  0
LINE
  8
0-0
  6
CONTINUOUS
 62
    7
 10
24779.841
 20
29334.705
 11
24773.535
 21
29332.497
  0
LINE
  8
0-0
  6
CONTINUOUS
 62
    7
 10
24773.535
 20
29332.497
 11
24766.774
 21
29324.263
  0
LINE
  8
0-0
  6
CONTINUOUS
 62
    7
 10
24766.774
 20
29324.263
 11
24762.896
 21
29313.435
  0
LINE
  8
0-0
  6
CONTINUOUS
 62
    7
 10
24762.896
 20
29313.435
 11
24761.367
 21
29299.035
  0
LINE
  8
0-0
  6
CONTINUOUS
 62
    7
 10
24761.367
 20
29299.035
 11
24762.896
 21
29284.624
  0
LINE
  8
0-0
  6
CONTINUOUS
 62
    7
 10
24762.896
 20
29284.624
 11
24766.774
 21
29273.803
  0
LINE
  8
0-0
  6
CONTINUOUS
 62
    7
 10
24766.774
 20
29273.803
 11
24773.535
 21
29265.569
  0
LINE
  8
0-0
  6
CONTINUOUS
 62
    7
 10
24773.535
 20
29265.569
 11
24779.841
 21
29263.354
  0
LINE
  8
0-0
  6
CONTINUOUS
 62
    7
 10
24722.319
 20
27521.555
 11
24758.718
 21
27548.417
  0
LINE
  8
0-0
  6
CONTINUOUS
 62
    7
 10
24246.205
 20
28734.078
 11
24178.486
 21
28419.287
  0
LINE
  8
0-0
  6
CONTINUOUS
 62
    7
 10
24254.313
 20
28420.505
 11
24322.053
 21
28734.078
  0
LINE
  8
0-0
  6
CONTINUOUS
 62
    7
 10
24749.609
 20
28276.017
 11
24749.609
 21
28559.467
  0
LINE
  8
0-0
  6
CONTINUOUS
 62
    7
 10
24732.751
 20
28276.017
 11
24732.751
 21
28559.467
  0
LINE
  8
0-0
  6
CONTINUOUS
 62
    7
 10
23649.917
 20
28181.25
 11
23644.23
 21
28189.604
  0
LINE
  8
0-0
  6
CONTINUOUS
 62
    7
 10
23649.917
 20
28181.25
 11
23793.792
 21
28279.097
  0
LINE
  8
0-0
  6
CONTINUOUS
 62
    7
 10
23649.917
 20
28181.25
 11
23718.308
 21
28196.323
  0
LINE
  8
0-0
  6
CONTINUOUS
 62
    7
 10
23901.79
 20
28276.017
 11
24168.397
 21
28179.081
  0
LINE
  8
0-0
  6
CONTINUOUS
 62
    7
 10
23644.23
 20
28189.604
 11
23783.682
 21
28284.451
  0
LINE
  8
0-0
  6
CONTINUOUS
 62
    7
 10
23793.792
 20
28279.097
 11
23862.19
 21
28294.179
  0
LINE
  8
0-0
  6
CONTINUOUS
 62
    7
 10
23718.308
 20
28196.323
 11
23862.19
 21
28294.179
  0
LINE
  8
0-0
  6
CONTINUOUS
 62
    7
 10
23994.244
 20
28309.938
 11
24146.472
 21
28309.938
  0
LINE
  8
0-0
  6
CONTINUOUS
 62
    7
 10
23994.244
 20
28309.938
 11
23901.79
 21
28276.017
  0
LINE
  8
0-0
  6
CONTINUOUS
 62
    7
 10
23901.79
 20
28276.017
 11
23890.704
 21
28276.017
  0
LINE
  8
0-0
  6
CONTINUOUS
 62
    7
 10
24374.479
 20
28183.326
 11
24375.574
 21
28179.081
  0
LINE
  8
0-0
  6
CONTINUOUS
 62
    7
 10
24375.574
 20
28179.081
 11
24741.175
 21
28273.672
  0
LINE
  8
0-0
  6
CONTINUOUS
 62
    7
 10
24741.175
 20
27796.707
 11
24741.175
 21
28276.017
  0
LINE
  8
0-0
  6
CONTINUOUS
 62
    7
 10
24749.609
 20
28276.017
 11
24749.609
 21
27792.837
  0
LINE
  8
0-0
  6
CONTINUOUS
 62
    7
 10
24749.609
 20
28276.017
 11
24732.751
 21
28276.017
  0
LINE
  8
0-0
  6
CONTINUOUS
 62
    7
 10
24344.142
 20
28419.287
 11
24422.062
 21
28419.287
  0
LINE
  8
0-0
  6
CONTINUOUS
 62
    7
 10
24429.505
 20
28309.938
 11
24732.751
 21
28309.938
  0
LINE
  8
0-0
  6
CONTINUOUS
 62
    7
 10
24374.479
 20
28183.326
 11
24732.751
 21
28276.017
  0
LINE
  8
0-0
  6
CONTINUOUS
 62
    7
 10
24374.479
 20
28183.326
 11
24429.505
 21
28309.938
  0
LINE
  8
0-0
  6
CONTINUOUS
 62
    7
 10
24216.41
 20
28356.1
 11
24279.954
 21
28356.1
  0
LINE
  8
0-0
  6
CONTINUOUS
 62
    7
 10
24369.52
 20
28356.1
 11
24386.857
 21
28360.572
  0
LINE
  8
0-0
  6
CONTINUOUS
 62
    7
 10
24386.857
 20
28360.572
 11
24402.944
 21
28374.598
  0
LINE
  8
0-0
  6
CONTINUOUS
 62
    7
 10
24402.944
 20
28374.598
 11
24413.019
 21
28394.363
  0
LINE
  8
0-0
  6
CONTINUOUS
 62
    7
 10
24413.019
 20
28394.363
 11
24416.792
 21
28419.287
  0
LINE
  8
0-0
  6
CONTINUOUS
 62
    7
 10
24416.792
 20
28419.287
 11
24413.019
 21
28444.2
  0
LINE
  8
0-0
  6
CONTINUOUS
 62
    7
 10
24413.019
 20
28444.2
 11
24402.944
 21
28463.965
  0
LINE
  8
0-0
  6
CONTINUOUS
 62
    7
 10
24402.944
 20
28463.965
 11
24386.857
 21
28477.988
  0
LINE
  8
0-0
  6
CONTINUOUS
 62
    7
 10
24386.857
 20
28477.988
 11
24369.52
 21
28482.474
  0
LINE
  8
0-0
  6
CONTINUOUS
 62
    7
 10
24369.52
 20
28482.474
 11
24352.184
 21
28477.988
  0
LINE
  8
0-0
  6
CONTINUOUS
 62
    7
 10
24352.184
 20
28477.988
 11
24336.096
 21
28463.965
  0
LINE
  8
0-0
  6
CONTINUOUS
 62
    7
 10
24336.096
 20
28463.965
 11
24326.025
 21
28444.2
  0
LINE
  8
0-0
  6
CONTINUOUS
 62
    7
 10
24326.025
 20
28444.2
 11
24322.249
 21
28419.287
  0
LINE
  8
0-0
  6
CONTINUOUS
 62
    7
 10
24322.249
 20
28419.287
 11
24326.025
 21
28394.363
  0
LINE
  8
0-0
  6
CONTINUOUS
 62
    7
 10
24326.025
 20
28394.363
 11
24336.096
 21
28374.598
  0
LINE
  8
0-0
  6
CONTINUOUS
 62
    7
 10
24336.096
 20
28374.598
 11
24352.184
 21
28360.572
  0
LINE
  8
0-0
  6
CONTINUOUS
 62
    7
 10
24352.184
 20
28360.572
 11
24369.52
 21
28356.1
  0
LINE
  8
0-0
  6
CONTINUOUS
 62
    7
 10
24374.479
 20
28383.606
 11
24380.785
 21
28385.821
  0
LINE
  8
0-0
  6
CONTINUOUS
 62
    7
 10
24380.785
 20
28385.821
 11
24387.543
 21
28394.055
  0
LINE
  8
0-0
  6
CONTINUOUS
 62
    7
 10
24387.543
 20
28394.055
 11
24391.424
 21
28404.876
  0
LINE
  8
0-0
  6
CONTINUOUS
 62
    7
 10
24391.424
 20
28404.876
 11
24392.953
 21
28419.287
  0
LINE
  8
0-0
  6
CONTINUOUS
 62
    7
 10
24392.953
 20
28419.287
 11
24391.424
 21
28433.687
  0
LINE
  8
0-0
  6
CONTINUOUS
 62
    7
 10
24391.424
 20
28433.687
 11
24387.543
 21
28444.515
  0
LINE
  8
0-0
  6
CONTINUOUS
 62
    7
 10
24387.543
 20
28444.515
 11
24380.785
 21
28452.749
  0
LINE
  8
0-0
  6
CONTINUOUS
 62
    7
 10
24380.785
 20
28452.749
 11
24374.479
 21
28454.957
  0
LINE
  8
0-0
  6
CONTINUOUS
 62
    7
 10
24374.479
 20
28454.957
 11
24368.169
 21
28452.749
  0
LINE
  8
0-0
  6
CONTINUOUS
 62
    7
 10
24368.169
 20
28452.749
 11
24361.415
 21
28444.515
  0
LINE
  8
0-0
  6
CONTINUOUS
 62
    7
 10
24361.415
 20
28444.515
 11
24357.531
 21
28433.687
  0
LINE
  8
0-0
  6
CONTINUOUS
 62
    7
 10
24357.531
 20
28433.687
 11
24356.002
 21
28419.287
  0
LINE
  8
0-0
  6
CONTINUOUS
 62
    7
 10
24356.002
 20
28419.287
 11
24357.531
 21
28404.876
  0
LINE
  8
0-0
  6
CONTINUOUS
 62
    7
 10
24357.531
 20
28404.876
 11
24361.415
 21
28394.055
  0
LINE
  8
0-0
  6
CONTINUOUS
 62
    7
 10
24361.415
 20
28394.055
 11
24368.169
 21
28385.821
  0
LINE
  8
0-0
  6
CONTINUOUS
 62
    7
 10
24368.169
 20
28385.821
 11
24374.479
 21
28383.606
  0
LINE
  8
0-0
  6
CONTINUOUS
 62
    7
 10
24366.052
 20
28454.957
 11
24359.743
 21
28452.749
  0
LINE
  8
0-0
  6
CONTINUOUS
 62
    7
 10
24359.743
 20
28452.749
 11
24352.985
 21
28444.515
  0
LINE
  8
0-0
  6
CONTINUOUS
 62
    7
 10
24352.985
 20
28444.515
 11
24349.101
 21
28433.687
  0
LINE
  8
0-0
  6
CONTINUOUS
 62
    7
 10
24349.101
 20
28433.687
 11
24347.571
 21
28419.287
  0
LINE
  8
0-0
  6
CONTINUOUS
 62
    7
 10
24347.571
 20
28419.287
 11
24349.101
 21
28404.876
  0
LINE
  8
0-0
  6
CONTINUOUS
 62
    7
 10
24349.101
 20
28404.876
 11
24352.985
 21
28394.055
  0
LINE
  8
0-0
  6
CONTINUOUS
 62
    7
 10
24352.985
 20
28394.055
 11
24359.743
 21
28385.821
  0
LINE
  8
0-0
  6
CONTINUOUS
 62
    7
 10
24359.743
 20
28385.821
 11
24366.052
 21
28383.606
  0
LINE
  8
0-0
  6
CONTINUOUS
 62
    7
 10
24347.029
 20
28482.474
 11
24329.692
 21
28477.988
  0
LINE
  8
0-0
  6
CONTINUOUS
 62
    7
 10
24329.692
 20
28477.988
 11
24313.605
 21
28463.965
  0
LINE
  8
0-0
  6
CONTINUOUS
 62
    7
 10
24313.605
 20
28463.965
 11
24303.527
 21
28444.2
  0
LINE
  8
0-0
  6
CONTINUOUS
 62
    7
 10
24303.527
 20
28444.2
 11
24299.758
 21
28419.287
  0
LINE
  8
0-0
  6
CONTINUOUS
 62
    7
 10
24299.758
 20
28419.287
 11
24303.527
 21
28394.363
  0
LINE
  8
0-0
  6
CONTINUOUS
 62
    7
 10
24303.527
 20
28394.363
 11
24313.605
 21
28374.598
  0
LINE
  8
0-0
  6
CONTINUOUS
 62
    7
 10
24313.605
 20
28374.598
 11
24329.692
 21
28360.572
  0
LINE
  8
0-0
  6
CONTINUOUS
 62
    7
 10
24329.692
 20
28360.572
 11
24347.029
 21
28356.1
  0
LINE
  8
0-0
  6
CONTINUOUS
 62
    7
 10
24366.052
 20
28383.606
 11
24375.49
 21
28383.606
  0
LINE
  8
0-0
  6
CONTINUOUS
 62
    7
 10
24347.029
 20
28356.1
 11
24369.52
 21
28356.1
  0
LINE
  8
0-0
  6
CONTINUOUS
 62
    7
 10
24366.052
 20
28454.957
 11
24374.479
 21
28454.957
  0
LINE
  8
0-0
  6
CONTINUOUS
 62
    7
 10
24347.029
 20
28482.474
 11
24369.52
 21
28482.474
  0
LINE
  8
0-0
  6
CONTINUOUS
 62
    7
 10
24553.125
 20
29028.771
 11
24749.609
 21
28559.467
  0
LINE
  8
0-0
  6
CONTINUOUS
 62
    7
 10
24142.535
 20
29025.93
 11
24184.865
 21
28962.435
  0
LINE
  8
0-0
  6
CONTINUOUS
 62
    7
 10
24184.865
 20
28962.435
 11
24296.447
 21
29032.064
  0
LINE
  8
0-0
  6
CONTINUOUS
 62
    7
 10
23901.79
 20
28559.467
 11
24189.537
 21
28655.273
  0
LINE
  8
0-0
  6
CONTINUOUS
 62
    7
 10
23644.23
 20
28648.959
 11
23783.682
 21
28554.112
  0
LINE
  8
0-0
  6
CONTINUOUS
 62
    7
 10
23649.917
 20
28657.323
 11
23644.23
 21
28648.959
  0
LINE
  8
0-0
  6
CONTINUOUS
 62
    7
 10
23649.917
 20
28657.323
 11
23793.792
 21
28559.467
  0
LINE
  8
0-0
  6
CONTINUOUS
 62
    7
 10
23651.523
 20
28697.449
 11
23667.512
 21
28686.016
  0
LINE
  8
0-0
  6
CONTINUOUS
 62
    7
 10
23793.792
 20
28559.467
 11
23865.539
 21
28543.649
  0
LINE
  8
0-0
  6
CONTINUOUS
 62
    7
 10
23649.917
 20
28657.323
 11
23721.66
 21
28641.505
  0
LINE
  8
0-0
  6
CONTINUOUS
 62
    7
 10
23721.66
 20
28641.505
 11
23865.539
 21
28543.649
  0
LINE
  8
0-0
  6
CONTINUOUS
 62
    7
 10
23950.118
 20
28966.533
 11
23993.922
 21
28937.931
  0
LINE
  8
0-0
  6
CONTINUOUS
 62
    7
 10
23809.519
 20
28581.755
 11
23950.118
 21
28966.533
  0
LINE
  8
0-0
  6
CONTINUOUS
 62
    7
 10
23852.976
 20
28552.202
 11
23993.922
 21
28937.931
  0
LINE
  8
0-0
  6
CONTINUOUS
 62
    7
 10
23865.539
 20
28543.649
 11
24004.543
 21
28924.052
  0
LINE
  8
0-0
  6
CONTINUOUS
 62
    7
 10
23993.922
 20
28937.931
 11
24004.543
 21
28924.052
  0
LINE
  8
0-0
  6
CONTINUOUS
 62
    7
 10
23994.51
 20
28528.457
 11
24158.899
 21
28528.457
  0
LINE
  8
0-0
  6
CONTINUOUS
 62
    7
 10
23994.51
 20
28528.457
 11
23901.79
 21
28559.467
  0
LINE
  8
0-0
  6
CONTINUOUS
 62
    7
 10
23901.79
 20
28559.467
 11
23890.704
 21
28559.467
  0
LINE
  8
0-0
  6
CONTINUOUS
 62
    7
 10
24732.751
 20
28559.467
 11
24749.609
 21
28559.467
  0
LINE
  8
0-0
  6
CONTINUOUS
 62
    7
 10
24431.923
 20
28528.457
 11
24732.751
 21
28528.457
  0
LINE
  8
0-0
  6
CONTINUOUS
 62
    7
 10
24429.505
 20
28528.636
 11
24732.751
 21
28528.636
  0
LINE
  8
0-0
  6
CONTINUOUS
 62
    7
 10
24339.288
 20
28614.93
 11
24345.104
 21
28602.489
  0
LINE
  8
0-0
  6
CONTINUOUS
 62
    7
 10
24345.104
 20
28602.489
 11
24381.436
 21
28609.408
  0
LINE
  8
0-0
  6
CONTINUOUS
 62
    7
 10
24339.288
 20
28614.93
 11
24377.167
 21
28620.575
  0
LINE
  8
0-0
  6
CONTINUOUS
 62
    7
 10
24377.167
 20
28620.575
 11
24381.436
 21
28609.408
  0
LINE
  8
0-0
  6
CONTINUOUS
 62
    7
 10
24543.278
 20
29009.192
 11
24729.283
 21
28564.898
  0
LINE
  8
0-0
  6
CONTINUOUS
 62
    7
 10
24539.243
 20
29001.055
 11
24720.906
 21
28567.137
  0
LINE
  8
0-0
  6
CONTINUOUS
 62
    7
 10
24533.693
 20
28989.773
 11
24709.336
 21
28570.235
  0
LINE
  8
0-0
  6
CONTINUOUS
 62
    7
 10
24529.371
 20
28980.895
 11
24700.283
 21
28572.649
  0
LINE
  8
0-0
  6
CONTINUOUS
 62
    7
 10
24395.997
 20
28654.016
 11
24749.609
 21
28559.467
  0
LINE
  8
0-0
  6
CONTINUOUS
 62
    7
 10
24386.941
 20
28626.57
 11
24429.505
 21
28528.636
  0
LINE
  8
0-0
  6
CONTINUOUS
 62
    7
 10
24394.612
 20
28649.88
 11
24732.751
 21
28559.467
  0
LINE
  8
0-0
  6
CONTINUOUS
 62
    7
 10
24142.535
 20
29025.93
 11
24317.826
 21
29158.844
  0
LINE
  8
0-0
  6
CONTINUOUS
 62
    7
 10
24111.838
 20
29149.767
 11
24123.263
 21
29133.774
  0
LINE
  8
0-0
  6
CONTINUOUS
 62
    7
 10
24669.246
 20
29141.077
 11
24669.246
 21
29199.197
  0
LINE
  8
0-0
  6
CONTINUOUS
 62
    7
 10
24539.792
 20
29101.043
 11
24561.104
 21
29063.115
  0
LINE
  8
0-0
  6
CONTINUOUS
 62
    7
 10
24561.104
 20
29063.115
 11
24566.857
 21
29055.424
  0
LINE
  8
0-0
  6
CONTINUOUS
 62
    7
 10
24995.988
 20
27521.555
 11
24959.596
 21
27548.417
  0
LINE
  8
0-0
  6
CONTINUOUS
 62
    7
 10
24959.596
 20
27548.417
 11
24950.008
 21
27585.582
  0
LINE
  8
0-0
  6
CONTINUOUS
 62
    7
 10
26068.397
 20
28181.25
 11
25924.515
 21
28279.097
  0
LINE
  8
0-0
  6
CONTINUOUS
 62
    7
 10
26074.081
 20
28189.604
 11
25934.625
 21
28284.451
  0
LINE
  8
0-0
  6
CONTINUOUS
 62
    7
 10
26074.081
 20
28648.959
 11
25934.625
 21
28554.112
  0
LINE
  8
0-0
  6
CONTINUOUS
 62
    7
 10
26068.397
 20
28657.323
 11
25924.515
 21
28559.467
  0
LINE
  8
0-0
  6
CONTINUOUS
 62
    7
 10
25996.651
 20
28641.505
 11
25852.768
 21
28543.649
  0
LINE
  8
0-0
  6
CONTINUOUS
 62
    7
 10
26000.007
 20
28196.323
 11
25856.124
 21
28294.179
  0
LINE
  8
0-0
  6
CONTINUOUS
 62
    7
 10
24968.706
 20
28276.017
 11
24968.706
 21
28559.467
  0
LINE
  8
0-0
  6
CONTINUOUS
 62
    7
 10
24985.563
 20
28276.017
 11
24985.563
 21
28559.467
  0
LINE
  8
0-0
  6
CONTINUOUS
 62
    7
 10
25472.106
 20
28734.078
 11
25539.822
 21
28419.287
  0
LINE
  8
0-0
  6
CONTINUOUS
 62
    7
 10
25463.998
 20
28420.505
 11
25396.261
 21
28734.078
  0
LINE
  8
0-0
  6
CONTINUOUS
 62
    7
 10
25374.165
 20
28419.287
 11
25296.245
 21
28419.287
  0
LINE
  8
0-0
  6
CONTINUOUS
 62
    7
 10
25348.787
 20
28356.1
 11
25366.131
 21
28360.572
  0
LINE
  8
0-0
  6
CONTINUOUS
 62
    7
 10
25366.131
 20
28360.572
 11
25382.211
 21
28374.598
  0
LINE
  8
0-0
  6
CONTINUOUS
 62
    7
 10
25382.211
 20
28374.598
 11
25392.289
 21
28394.363
  0
LINE
  8
0-0
  6
CONTINUOUS
 62
    7
 10
25392.289
 20
28394.363
 11
25396.058
 21
28419.287
  0
LINE
  8
0-0
  6
CONTINUOUS
 62
    7
 10
25396.058
 20
28419.287
 11
25392.289
 21
28444.2
  0
LINE
  8
0-0
  6
CONTINUOUS
 62
    7
 10
25392.289
 20
28444.2
 11
25382.211
 21
28463.965
  0
LINE
  8
0-0
  6
CONTINUOUS
 62
    7
 10
25382.211
 20
28463.965
 11
25366.131
 21
28477.988
  0
LINE
  8
0-0
  6
CONTINUOUS
 62
    7
 10
25366.131
 20
28477.988
 11
25348.787
 21
28482.474
  0
LINE
  8
0-0
  6
CONTINUOUS
 62
    7
 10
25348.787
 20
28482.474
 11
25331.454
 21
28477.988
  0
LINE
  8
0-0
  6
CONTINUOUS
 62
    7
 10
25331.454
 20
28477.988
 11
25315.363
 21
28463.965
  0
LINE
  8
0-0
  6
CONTINUOUS
 62
    7
 10
25315.363
 20
28463.965
 11
25305.292
 21
28444.2
  0
LINE
  8
0-0
  6
CONTINUOUS
 62
    7
 10
25305.292
 20
28444.2
 11
25301.523
 21
28419.287
  0
LINE
  8
0-0
  6
CONTINUOUS
 62
    7
 10
25301.523
 20
28419.287
 11
25305.292
 21
28394.363
  0
LINE
  8
0-0
  6
CONTINUOUS
 62
    7
 10
25305.292
 20
28394.363
 11
25315.363
 21
28374.598
  0
LINE
  8
0-0
  6
CONTINUOUS
 62
    7
 10
25315.363
 20
28374.598
 11
25331.454
 21
28360.572
  0
LINE
  8
0-0
  6
CONTINUOUS
 62
    7
 10
25331.454
 20
28360.572
 11
25348.787
 21
28356.1
  0
LINE
  8
0-0
  6
CONTINUOUS
 62
    7
 10
25371.285
 20
28356.1
 11
25388.615
 21
28360.572
  0
LINE
  8
0-0
  6
CONTINUOUS
 62
    7
 10
25388.615
 20
28360.572
 11
25404.709
 21
28374.598
  0
LINE
  8
0-0
  6
CONTINUOUS
 62
    7
 10
25404.709
 20
28374.598
 11
25414.781
 21
28394.363
  0
LINE
  8
0-0
  6
CONTINUOUS
 62
    7
 10
25414.781
 20
28394.363
 11
25418.553
 21
28419.287
  0
LINE
  8
0-0
  6
CONTINUOUS
 62
    7
 10
25418.553
 20
28419.287
 11
25414.781
 21
28444.2
  0
LINE
  8
0-0
  6
CONTINUOUS
 62
    7
 10
25414.781
 20
28444.2
 11
25404.709
 21
28463.965
  0
LINE
  8
0-0
  6
CONTINUOUS
 62
    7
 10
25404.709
 20
28463.965
 11
25388.615
 21
28477.988
  0
LINE
  8
0-0
  6
CONTINUOUS
 62
    7
 10
25388.615
 20
28477.988
 11
25371.285
 21
28482.474
  0
LINE
  8
0-0
  6
CONTINUOUS
 62
    7
 10
25343.835
 20
28183.326
 11
25342.736
 21
28179.081
  0
LINE
  8
0-0
  6
CONTINUOUS
 62
    7
 10
25342.736
 20
28179.081
 11
24977.132
 21
28273.672
  0
LINE
  8
0-0
  6
CONTINUOUS
 62
    7
 10
24977.132
 20
27796.707
 11
24977.132
 21
28276.017
  0
LINE
  8
0-0
  6
CONTINUOUS
 62
    7
 10
24968.706
 20
28276.017
 11
24968.706
 21
27792.837
  0
LINE
  8
0-0
  6
CONTINUOUS
 62
    7
 10
24968.706
 20
28276.017
 11
24985.563
 21
28276.017
  0
LINE
  8
0-0
  6
CONTINUOUS
 62
    7
 10
25288.805
 20
28309.938
 11
24985.563
 21
28309.938
  0
LINE
  8
0-0
  6
CONTINUOUS
 62
    7
 10
25343.835
 20
28183.326
 11
24985.563
 21
28276.017
  0
LINE
  8
0-0
  6
CONTINUOUS
 62
    7
 10
25343.835
 20
28183.326
 11
25288.805
 21
28309.938
  0
LINE
  8
0-0
  6
CONTINUOUS
 62
    7
 10
25343.835
 20
28383.606
 11
25350.145
 21
28385.821
  0
LINE
  8
0-0
  6
CONTINUOUS
 62
    7
 10
25350.145
 20
28385.821
 11
25356.899
 21
28394.055
  0
LINE
  8
0-0
  6
CONTINUOUS
 62
    7
 10
25356.899
 20
28394.055
 11
25360.783
 21
28404.876
  0
LINE
  8
0-0
  6
CONTINUOUS
 62
    7
 10
25360.783
 20
28404.876
 11
25362.313
 21
28419.287
  0
LINE
  8
0-0
  6
CONTINUOUS
 62
    7
 10
25362.313
 20
28419.287
 11
25360.783
 21
28433.687
  0
LINE
  8
0-0
  6
CONTINUOUS
 62
    7
 10
25360.783
 20
28433.687
 11
25356.899
 21
28444.515
  0
LINE
  8
0-0
  6
CONTINUOUS
 62
    7
 10
25356.899
 20
28444.515
 11
25350.145
 21
28452.749
  0
LINE
  8
0-0
  6
CONTINUOUS
 62
    7
 10
25350.145
 20
28452.749
 11
25343.835
 21
28454.957
  0
LINE
  8
0-0
  6
CONTINUOUS
 62
    7
 10
25343.835
 20
28454.957
 11
25337.526
 21
28452.749
  0
LINE
  8
0-0
  6
CONTINUOUS
 62
    7
 10
25337.526
 20
28452.749
 11
25330.768
 21
28444.515
  0
LINE
  8
0-0
  6
CONTINUOUS
 62
    7
 10
25330.768
 20
28444.515
 11
25326.884
 21
28433.687
  0
LINE
  8
0-0
  6
CONTINUOUS
 62
    7
 10
25326.884
 20
28433.687
 11
25325.354
 21
28419.287
  0
LINE
  8
0-0
  6
CONTINUOUS
 62
    7
 10
25325.354
 20
28419.287
 11
25326.884
 21
28404.876
  0
LINE
  8
0-0
  6
CONTINUOUS
 62
    7
 10
25326.884
 20
28404.876
 11
25330.768
 21
28394.055
  0
LINE
  8
0-0
  6
CONTINUOUS
 62
    7
 10
25330.768
 20
28394.055
 11
25337.526
 21
28385.821
  0
LINE
  8
0-0
  6
CONTINUOUS
 62
    7
 10
25337.526
 20
28385.821
 11
25343.835
 21
28383.606
  0
LINE
  8
0-0
  6
CONTINUOUS
 62
    7
 10
25352.262
 20
28383.606
 11
25358.568
 21
28385.821
  0
LINE
  8
0-0
  6
CONTINUOUS
 62
    7
 10
25358.568
 20
28385.821
 11
25365.326
 21
28394.055
  0
LINE
  8
0-0
  6
CONTINUOUS
 62
    7
 10
25365.326
 20
28394.055
 11
25369.207
 21
28404.876
  0
LINE
  8
0-0
  6
CONTINUOUS
 62
    7
 10
25369.207
 20
28404.876
 11
25370.736
 21
28419.287
  0
LINE
  8
0-0
  6
CONTINUOUS
 62
    7
 10
25370.736
 20
28419.287
 11
25369.207
 21
28433.687
  0
LINE
  8
0-0
  6
CONTINUOUS
 62
    7
 10
25369.207
 20
28433.687
 11
25365.326
 21
28444.515
  0
LINE
  8
0-0
  6
CONTINUOUS
 62
    7
 10
25365.326
 20
28444.515
 11
25358.568
 21
28452.749
  0
LINE
  8
0-0
  6
CONTINUOUS
 62
    7
 10
25358.568
 20
28452.749
 11
25352.262
 21
28454.957
  0
LINE
  8
0-0
  6
CONTINUOUS
 62
    7
 10
25352.262
 20
28383.606
 11
25342.824
 21
28383.606
  0
LINE
  8
0-0
  6
CONTINUOUS
 62
    7
 10
25371.285
 20
28356.1
 11
25348.787
 21
28356.1
  0
LINE
  8
0-0
  6
CONTINUOUS
 62
    7
 10
25352.262
 20
28454.957
 11
25343.835
 21
28454.957
  0
LINE
  8
0-0
  6
CONTINUOUS
 62
    7
 10
25371.285
 20
28482.474
 11
25348.787
 21
28482.474
  0
LINE
  8
0-0
  6
CONTINUOUS
 62
    7
 10
25816.52
 20
28276.017
 11
25549.918
 21
28179.081
  0
LINE
  8
0-0
  6
CONTINUOUS
 62
    7
 10
25501.897
 20
28356.1
 11
25438.357
 21
28356.1
  0
LINE
  8
0-0
  6
CONTINUOUS
 62
    7
 10
25924.515
 20
28279.097
 11
25856.124
 21
28294.179
  0
LINE
  8
0-0
  6
CONTINUOUS
 62
    7
 10
25724.071
 20
28309.938
 11
25571.835
 21
28309.938
  0
LINE
  8
0-0
  6
CONTINUOUS
 62
    7
 10
25724.071
 20
28309.938
 11
25816.52
 21
28276.017
  0
LINE
  8
0-0
  6
CONTINUOUS
 62
    7
 10
25816.52
 20
28276.017
 11
25827.61
 21
28276.017
  0
LINE
  8
0-0
  6
CONTINUOUS
 62
    7
 10
25373.207
 20
28602.489
 11
25336.878
 21
28609.408
  0
LINE
  8
0-0
  6
CONTINUOUS
 62
    7
 10
25379.019
 20
28614.93
 11
25341.144
 21
28620.575
  0
LINE
  8
0-0
  6
CONTINUOUS
 62
    7
 10
25165.182
 20
29028.771
 11
24968.706
 21
28559.467
  0
LINE
  8
0-0
  6
CONTINUOUS
 62
    7
 10
24985.563
 20
28559.467
 11
24968.706
 21
28559.467
  0
LINE
  8
0-0
  6
CONTINUOUS
 62
    7
 10
25286.384
 20
28528.457
 11
24985.563
 21
28528.457
  0
LINE
  8
0-0
  6
CONTINUOUS
 62
    7
 10
25288.805
 20
28528.636
 11
24985.563
 21
28528.636
  0
LINE
  8
0-0
  6
CONTINUOUS
 62
    7
 10
25341.144
 20
28620.575
 11
25336.878
 21
28609.408
  0
LINE
  8
0-0
  6
CONTINUOUS
 62
    7
 10
25175.037
 20
29009.192
 11
24989.027
 21
28564.898
  0
LINE
  8
0-0
  6
CONTINUOUS
 62
    7
 10
25179.068
 20
29001.055
 11
24997.409
 21
28567.137
  0
LINE
  8
0-0
  6
CONTINUOUS
 62
    7
 10
25184.618
 20
28989.773
 11
25008.974
 21
28570.235
  0
LINE
  8
0-0
  6
CONTINUOUS
 62
    7
 10
25188.937
 20
28980.895
 11
25018.024
 21
28572.649
  0
LINE
  8
0-0
  6
CONTINUOUS
 62
    7
 10
25322.317
 20
28654.016
 11
24968.706
 21
28559.467
  0
LINE
  8
0-0
  6
CONTINUOUS
 62
    7
 10
25331.373
 20
28626.57
 11
25288.805
 21
28528.636
  0
LINE
  8
0-0
  6
CONTINUOUS
 62
    7
 10
25323.699
 20
28649.88
 11
24985.563
 21
28559.467
  0
LINE
  8
0-0
  6
CONTINUOUS
 62
    7
 10
24788.268
 20
29263.354
 11
24794.577
 21
29265.569
  0
LINE
  8
0-0
  6
CONTINUOUS
 62
    7
 10
24794.577
 20
29265.569
 11
24801.331
 21
29273.803
  0
LINE
  8
0-0
  6
CONTINUOUS
 62
    7
 10
24801.331
 20
29273.803
 11
24805.216
 21
29284.624
  0
LINE
  8
0-0
  6
CONTINUOUS
 62
    7
 10
24805.216
 20
29284.624
 11
24806.745
 21
29299.035
  0
LINE
  8
0-0
  6
CONTINUOUS
 62
    7
 10
24806.745
 20
29299.035
 11
24805.216
 21
29313.435
  0
LINE
  8
0-0
  6
CONTINUOUS
 62
    7
 10
24805.216
 20
29313.435
 11
24801.331
 21
29324.263
  0
LINE
  8
0-0
  6
CONTINUOUS
 62
    7
 10
24801.331
 20
29324.263
 11
24794.577
 21
29332.497
  0
LINE
  8
0-0
  6
CONTINUOUS
 62
    7
 10
24794.577
 20
29332.497
 11
24788.268
 21
29334.705
  0
LINE
  8
0-0
  6
CONTINUOUS
 62
    7
 10
24788.268
 20
29334.705
 11
24781.958
 21
29332.497
  0
LINE
  8
0-0
  6
CONTINUOUS
 62
    7
 10
24781.958
 20
29332.497
 11
24775.204
 21
29324.263
  0
LINE
  8
0-0
  6
CONTINUOUS
 62
    7
 10
24775.204
 20
29324.263
 11
24771.32
 21
29313.435
  0
LINE
  8
0-0
  6
CONTINUOUS
 62
    7
 10
24771.32
 20
29313.435
 11
24769.794
 21
29299.035
  0
LINE
  8
0-0
  6
CONTINUOUS
 62
    7
 10
24769.794
 20
29299.035
 11
24771.32
 21
29284.624
  0
LINE
  8
0-0
  6
CONTINUOUS
 62
    7
 10
24771.32
 20
29284.624
 11
24775.204
 21
29273.803
  0
LINE
  8
0-0
  6
CONTINUOUS
 62
    7
 10
24775.204
 20
29273.803
 11
24781.958
 21
29265.569
  0
LINE
  8
0-0
  6
CONTINUOUS
 62
    7
 10
24781.958
 20
29265.569
 11
24788.268
 21
29263.354
  0
LINE
  8
0-0
  6
CONTINUOUS
 62
    7
 10
24779.841
 20
29263.354
 11
24789.279
 21
29263.354
  0
LINE
  8
0-0
  6
CONTINUOUS
 62
    7
 10
24779.841
 20
29334.705
 11
24788.268
 21
29334.705
  0
LINE
  8
0-0
  6
CONTINUOUS
 62
    7
 10
25027.697
 20
29194.564
 11
24859.154
 21
29194.564
  0
LINE
  8
0-0
  6
CONTINUOUS
 62
    7
 10
25036.124
 20
29177.71
 11
24859.154
 21
29177.71
  0
LINE
  8
0-0
  6
CONTINUOUS
 62
    7
 10
24969.304
 20
29235.848
 11
24934.998
 21
29235.848
  0
LINE
  8
0-0
  6
CONTINUOUS
 62
    7
 10
24930.047
 20
29263.354
 11
24936.349
 21
29265.569
  0
LINE
  8
0-0
  6
CONTINUOUS
 62
    7
 10
24936.349
 20
29265.569
 11
24943.11
 21
29273.803
  0
LINE
  8
0-0
  6
CONTINUOUS
 62
    7
 10
24943.11
 20
29273.803
 11
24946.991
 21
29284.624
  0
LINE
  8
0-0
  6
CONTINUOUS
 62
    7
 10
24946.991
 20
29284.624
 11
24948.52
 21
29299.035
  0
LINE
  8
0-0
  6
CONTINUOUS
 62
    7
 10
24948.52
 20
29299.035
 11
24946.991
 21
29313.435
  0
LINE
  8
0-0
  6
CONTINUOUS
 62
    7
 10
24946.991
 20
29313.435
 11
24943.11
 21
29324.263
  0
LINE
  8
0-0
  6
CONTINUOUS
 62
    7
 10
24943.11
 20
29324.263
 11
24936.349
 21
29332.497
  0
LINE
  8
0-0
  6
CONTINUOUS
 62
    7
 10
24936.349
 20
29332.497
 11
24930.047
 21
29334.705
  0
LINE
  8
0-0
  6
CONTINUOUS
 62
    7
 10
24930.047
 20
29334.705
 11
24923.737
 21
29332.497
  0
LINE
  8
0-0
  6
CONTINUOUS
 62
    7
 10
24923.737
 20
29332.497
 11
24916.979
 21
29324.263
  0
LINE
  8
0-0
  6
CONTINUOUS
 62
    7
 10
24916.979
 20
29324.263
 11
24913.091
 21
29313.435
  0
LINE
  8
0-0
  6
CONTINUOUS
 62
    7
 10
24913.091
 20
29313.435
 11
24911.566
 21
29299.035
  0
LINE
  8
0-0
  6
CONTINUOUS
 62
    7
 10
24911.566
 20
29299.035
 11
24913.091
 21
29284.624
  0
LINE
  8
0-0
  6
CONTINUOUS
 62
    7
 10
24913.091
 20
29284.624
 11
24916.979
 21
29273.803
  0
LINE
  8
0-0
  6
CONTINUOUS
 62
    7
 10
24916.979
 20
29273.803
 11
24923.737
 21
29265.569
  0
LINE
  8
0-0
  6
CONTINUOUS
 62
    7
 10
24923.737
 20
29265.569
 11
24930.047
 21
29263.354
  0
LINE
  8
0-0
  6
CONTINUOUS
 62
    7
 10
24938.47
 20
29263.354
 11
24944.78
 21
29265.569
  0
LINE
  8
0-0
  6
CONTINUOUS
 62
    7
 10
24944.78
 20
29265.569
 11
24951.534
 21
29273.803
  0
LINE
  8
0-0
  6
CONTINUOUS
 62
    7
 10
24951.534
 20
29273.803
 11
24955.418
 21
29284.624
  0
LINE
  8
0-0
  6
CONTINUOUS
 62
    7
 10
24955.418
 20
29284.624
 11
24956.947
 21
29299.035
  0
LINE
  8
0-0
  6
CONTINUOUS
 62
    7
 10
24956.947
 20
29299.035
 11
24955.418
 21
29313.435
  0
LINE
  8
0-0
  6
CONTINUOUS
 62
    7
 10
24955.418
 20
29313.435
 11
24951.534
 21
29324.263
  0
LINE
  8
0-0
  6
CONTINUOUS
 62
    7
 10
24951.534
 20
29324.263
 11
24944.78
 21
29332.497
  0
LINE
  8
0-0
  6
CONTINUOUS
 62
    7
 10
24944.78
 20
29332.497
 11
24938.47
 21
29334.705
  0
LINE
  8
0-0
  6
CONTINUOUS
 62
    7
 10
24938.47
 20
29263.354
 11
24929.032
 21
29263.354
  0
LINE
  8
0-0
  6
CONTINUOUS
 62
    7
 10
24938.47
 20
29334.705
 11
24930.047
 21
29334.705
  0
LINE
  8
0-0
  6
CONTINUOUS
 62
    7
 10
25049.068
 20
29141.077
 11
25049.068
 21
29199.197
  0
LINE
  8
0-0
  6
CONTINUOUS
 62
    7
 10
25178.519
 20
29101.043
 11
25157.207
 21
29063.115
  0
LINE
  8
0-0
  6
CONTINUOUS
 62
    7
 10
25157.207
 20
29063.115
 11
25151.453
 21
29055.424
  0
LINE
  8
0-0
  6
CONTINUOUS
 62
    7
 10
25575.779
 20
29025.93
 11
25533.449
 21
28962.435
  0
LINE
  8
0-0
  6
CONTINUOUS
 62
    7
 10
25533.449
 20
28962.435
 11
25421.864
 21
29032.064
  0
LINE
  8
0-0
  6
CONTINUOUS
 62
    7
 10
25379.019
 20
28614.93
 11
25373.207
 21
28602.489
  0
LINE
  8
0-0
  6
CONTINUOUS
 62
    7
 10
25816.52
 20
28559.467
 11
25528.777
 21
28655.273
  0
LINE
  8
0-0
  6
CONTINUOUS
 62
    7
 10
25924.515
 20
28559.467
 11
25852.768
 21
28543.649
  0
LINE
  8
0-0
  6
CONTINUOUS
 62
    7
 10
25768.189
 20
28966.533
 11
25724.385
 21
28937.931
  0
LINE
  8
0-0
  6
CONTINUOUS
 62
    7
 10
25908.795
 20
28581.755
 11
25768.189
 21
28966.533
  0
LINE
  8
0-0
  6
CONTINUOUS
 62
    7
 10
25865.339
 20
28552.202
 11
25724.385
 21
28937.931
  0
LINE
  8
0-0
  6
CONTINUOUS
 62
    7
 10
25852.768
 20
28543.649
 11
25713.768
 21
28924.052
  0
LINE
  8
0-0
  6
CONTINUOUS
 62
    7
 10
25724.385
 20
28937.931
 11
25713.768
 21
28924.052
  0
LINE
  8
0-0
  6
CONTINUOUS
 62
    7
 10
25723.798
 20
28528.457
 11
25559.408
 21
28528.457
  0
LINE
  8
0-0
  6
CONTINUOUS
 62
    7
 10
25723.798
 20
28528.457
 11
25816.52
 21
28559.467
  0
LINE
  8
0-0
  6
CONTINUOUS
 62
    7
 10
25816.52
 20
28559.467
 11
25827.61
 21
28559.467
  0
LINE
  8
0-0
  6
CONTINUOUS
 62
    7
 10
25606.473
 20
29149.767
 11
25595.051
 21
29133.774
  0
LINE
  8
0-0
  6
CONTINUOUS
 62
    7
 10
25575.779
 20
29025.93
 11
25400.489
 21
29158.844
  0
LINE
  8
0-0
  6
CONTINUOUS
 62
    7
 10
26068.397
 20
28181.25
 11
26074.081
 21
28189.604
  0
LINE
  8
0-0
  6
CONTINUOUS
 62
    7
 10
26068.397
 20
28181.25
 11
26000.007
 21
28196.323
  0
LINE
  8
0-0
  6
CONTINUOUS
 62
    7
 10
26068.397
 20
28657.323
 11
26074.081
 21
28648.959
  0
LINE
  8
0-0
  6
CONTINUOUS
 62
    7
 10
26066.788
 20
28697.449
 11
26050.795
 21
28686.016
  0
LINE
  8
0-0
  6
CONTINUOUS
 62
    7
 10
26068.397
 20
28657.323
 11
25996.651
 21
28641.505
  0
LINE
  8
0-0
  6
CONTINUOUS
 62
    7
 10
24741.175
 20
30749.326
 11
24723.838
 21
30744.847
  0
LINE
  8
0-0
  6
CONTINUOUS
 62
    7
 10
24723.838
 20
30744.847
 11
24707.754
 21
30730.821
  0
LINE
  8
0-0
  6
CONTINUOUS
 62
    7
 10
24707.754
 20
30730.821
 11
24697.679
 21
30711.056
  0
LINE
  8
0-0
  6
CONTINUOUS
 62
    7
 10
24697.679
 20
30711.056
 11
24693.903
 21
30686.132
  0
LINE
  8
0-0
  6
CONTINUOUS
 62
    7
 10
24693.903
 20
30686.132
 11
24697.679
 21
30661.223
  0
LINE
  8
0-0
  6
CONTINUOUS
 62
    7
 10
24697.679
 20
30661.223
 11
24707.754
 21
30641.45
  0
LINE
  8
0-0
  6
CONTINUOUS
 62
    7
 10
24707.754
 20
30641.45
 11
24723.838
 21
30627.431
  0
LINE
  8
0-0
  6
CONTINUOUS
 62
    7
 10
24723.838
 20
30627.431
 11
24741.175
 21
30622.945
  0
LINE
  8
0-0
  6
CONTINUOUS
 62
    7
 10
24741.175
 20
30622.945
 11
24758.515
 21
30627.431
  0
LINE
  8
0-0
  6
CONTINUOUS
 62
    7
 10
24758.515
 20
30627.431
 11
24774.606
 21
30641.45
  0
LINE
  8
0-0
  6
CONTINUOUS
 62
    7
 10
24774.606
 20
30641.45
 11
24784.674
 21
30661.223
  0
LINE
  8
0-0
  6
CONTINUOUS
 62
    7
 10
24784.674
 20
30661.223
 11
24788.446
 21
30686.132
  0
LINE
  8
0-0
  6
CONTINUOUS
 62
    7
 10
24788.446
 20
30686.132
 11
24784.674
 21
30711.056
  0
LINE
  8
0-0
  6
CONTINUOUS
 62
    7
 10
24784.674
 20
30711.056
 11
24774.606
 21
30730.821
  0
LINE
  8
0-0
  6
CONTINUOUS
 62
    7
 10
24774.606
 20
30730.821
 11
24758.515
 21
30744.847
  0
LINE
  8
0-0
  6
CONTINUOUS
 62
    7
 10
24758.515
 20
30744.847
 11
24741.175
 21
30749.326
  0
LINE
  8
0-0
  6
CONTINUOUS
 62
    7
 10
24749.003
 20
29362.22
 11
24783.316
 21
29362.22
  0
LINE
  8
0-0
  6
CONTINUOUS
 62
    7
 10
24703.471
 20
29514.791
 11
24812.323
 21
29448.588
  0
LINE
  8
0-0
  6
CONTINUOUS
 62
    7
 10
24747.376
 20
29488.09
 11
24859.154
 21
29488.09
  0
LINE
  8
0-0
  6
CONTINUOUS
 62
    7
 10
24690.617
 20
29432.602
 11
24859.154
 21
29432.602
  0
LINE
  8
0-0
  6
CONTINUOUS
 62
    7
 10
24690.617
 20
29448.588
 11
24859.154
 21
29448.588
  0
LINE
  8
0-0
  6
CONTINUOUS
 62
    7
 10
24870.244
 20
29488.09
 11
24878.677
 21
29579.686
  0
LINE
  8
0-0
  6
CONTINUOUS
 62
    7
 10
24878.677
 20
29579.686
 11
24867.388
 21
29669.631
  0
LINE
  8
0-0
  6
CONTINUOUS
 62
    7
 10
24867.388
 20
29669.631
 11
24835.332
 21
29752.632
  0
LINE
  8
0-0
  6
CONTINUOUS
 62
    7
 10
24835.332
 20
29752.632
 11
24796.107
 21
29799.126
  0
LINE
  8
0-0
  6
CONTINUOUS
 62
    7
 10
24796.107
 20
29799.126
 11
24745.014
 21
29819.318
  0
LINE
  8
0-0
  6
CONTINUOUS
 62
    7
 10
24745.014
 20
29819.318
 11
24694.558
 21
29807.273
  0
LINE
  8
0-0
  6
CONTINUOUS
 62
    7
 10
24694.558
 20
29807.273
 11
24653.449
 21
29767.554
  0
LINE
  8
0-0
  6
CONTINUOUS
 62
    7
 10
24653.449
 20
29767.554
 11
24617.068
 21
29689.718
  0
LINE
  8
0-0
  6
CONTINUOUS
 62
    7
 10
24617.068
 20
29689.718
 11
24601.38
 21
29603
  0
LINE
  8
0-0
  6
CONTINUOUS
 62
    7
 10
24601.38
 20
29603
 11
24605.107
 21
29509.367
  0
LINE
  8
0-0
  6
CONTINUOUS
 62
    7
 10
24721.955
 20
29616.48
 11
24794.133
 21
29488.09
  0
LINE
  8
0-0
  6
CONTINUOUS
 62
    7
 10
24739.512
 20
29612.589
 11
24809.51
 21
29488.09
  0
LINE
  8
0-0
  6
CONTINUOUS
 62
    7
 10
24769.307
 20
29559.585
 11
24768.978
 21
29601.901
  0
LINE
  8
0-0
  6
CONTINUOUS
 62
    7
 10
24768.978
 20
29601.901
 11
24763.449
 21
29634.524
  0
LINE
  8
0-0
  6
CONTINUOUS
 62
    7
 10
24763.449
 20
29634.524
 11
24750.949
 21
29661.582
  0
LINE
  8
0-0
  6
CONTINUOUS
 62
    7
 10
24750.949
 20
29661.582
 11
24741.112
 21
29666.621
  0
LINE
  8
0-0
  6
CONTINUOUS
 62
    7
 10
24841.229
 20
29488.09
 11
24849.03
 21
29562.336
  0
LINE
  8
0-0
  6
CONTINUOUS
 62
    7
 10
24849.03
 20
29562.336
 11
24841.929
 21
29639.066
  0
LINE
  8
0-0
  6
CONTINUOUS
 62
    7
 10
24841.929
 20
29639.066
 11
24819.13
 21
29711.737
  0
LINE
  8
0-0
  6
CONTINUOUS
 62
    7
 10
24819.13
 20
29711.737
 11
24789.975
 21
29755.739
  0
LINE
  8
0-0
  6
CONTINUOUS
 62
    7
 10
24789.975
 20
29755.739
 11
24749.56
 21
29780.502
  0
LINE
  8
0-0
  6
CONTINUOUS
 62
    7
 10
24749.56
 20
29780.502
 11
24712.08
 21
29778.115
  0
LINE
  8
0-0
  6
CONTINUOUS
 62
    7
 10
24712.08
 20
29778.115
 11
24679.72
 21
29752.877
  0
LINE
  8
0-0
  6
CONTINUOUS
 62
    7
 10
24679.72
 20
29752.877
 11
24648.301
 21
29694.687
  0
LINE
  8
0-0
  6
CONTINUOUS
 62
    7
 10
24648.301
 20
29694.687
 11
24632.9
 21
29627.77
  0
LINE
  8
0-0
  6
CONTINUOUS
 62
    7
 10
24632.9
 20
29627.77
 11
24631.437
 21
29548.366
  0
LINE
  8
0-0
  6
CONTINUOUS
 62
    7
 10
24704.682
 20
30559.73
 11
24859.154
 21
30559.73
  0
LINE
  8
0-0
  6
CONTINUOUS
 62
    7
 10
24702.299
 20
30542.883
 11
24859.154
 21
30542.883
  0
LINE
  8
0-0
  6
CONTINUOUS
 62
    7
 10
24745.766
 20
30394.07
 11
24754.14
 21
30397.416
  0
LINE
  8
0-0
  6
CONTINUOUS
 62
    7
 10
24754.14
 20
30397.416
 11
24763.565
 21
30410.721
  0
LINE
  8
0-0
  6
CONTINUOUS
 62
    7
 10
24763.565
 20
30410.721
 11
24768.719
 21
30427.715
  0
LINE
  8
0-0
  6
CONTINUOUS
 62
    7
 10
24768.719
 20
30427.715
 11
24770.627
 21
30450.587
  0
LINE
  8
0-0
  6
CONTINUOUS
 62
    7
 10
24770.627
 20
30450.587
 11
24768.296
 21
30473.432
  0
LINE
  8
0-0
  6
CONTINUOUS
 62
    7
 10
24768.296
 20
30473.432
 11
24762.812
 21
30490.321
  0
LINE
  8
0-0
  6
CONTINUOUS
 62
    7
 10
24762.812
 20
30490.321
 11
24753.14
 21
30503.444
  0
LINE
  8
0-0
  6
CONTINUOUS
 62
    7
 10
24753.14
 20
30503.444
 11
24744.709
 21
30506.628
  0
LINE
  8
0-0
  6
CONTINUOUS
 62
    7
 10
24744.709
 20
30506.628
 11
24736.335
 21
30503.283
  0
LINE
  8
0-0
  6
CONTINUOUS
 62
    7
 10
24736.335
 20
30503.283
 11
24726.914
 21
30489.978
  0
LINE
  8
0-0
  6
CONTINUOUS
 62
    7
 10
24726.914
 20
30489.978
 11
24721.756
 21
30472.984
  0
LINE
  8
0-0
  6
CONTINUOUS
 62
    7
 10
24721.756
 20
30472.984
 11
24719.852
 21
30450.111
  0
LINE
  8
0-0
  6
CONTINUOUS
 62
    7
 10
24719.852
 20
30450.111
 11
24722.183
 21
30427.281
  0
LINE
  8
0-0
  6
CONTINUOUS
 62
    7
 10
24722.183
 20
30427.281
 11
24727.66
 21
30410.385
  0
LINE
  8
0-0
  6
CONTINUOUS
 62
    7
 10
24727.66
 20
30410.385
 11
24737.336
 21
30397.262
  0
LINE
  8
0-0
  6
CONTINUOUS
 62
    7
 10
24737.336
 20
30397.262
 11
24745.766
 21
30394.07
  0
LINE
  8
0-0
  6
CONTINUOUS
 62
    7
 10
24758.546
 20
30394.07
 11
24767.477
 21
30397.794
  0
LINE
  8
0-0
  6
CONTINUOUS
 62
    7
 10
24767.477
 20
30397.794
 11
24777.465
 21
30413.185
  0
LINE
  8
0-0
  6
CONTINUOUS
 62
    7
 10
24777.465
 20
30413.185
 11
24782.451
 21
30432.684
  0
LINE
  8
0-0
  6
CONTINUOUS
 62
    7
 10
24782.451
 20
30432.684
 11
24783.249
 21
30457.544
  0
LINE
  8
0-0
  6
CONTINUOUS
 62
    7
 10
24783.249
 20
30457.544
 11
24779.015
 21
30481.915
  0
LINE
  8
0-0
  6
CONTINUOUS
 62
    7
 10
24779.015
 20
30481.915
 11
24771.96
 21
30497.026
  0
LINE
  8
0-0
  6
CONTINUOUS
 62
    7
 10
24771.96
 20
30497.026
 11
24761.048
 21
30505.621
  0
LINE
  8
0-0
  6
CONTINUOUS
 62
    7
 10
24761.048
 20
30505.621
 11
24751.271
 21
30504.788
  0
LINE
  8
0-0
  6
CONTINUOUS
 62
    7
 10
24756.569
 20
30394.07
 11
24774.14
 21
30394.07
  0
LINE
  8
0-0
  6
CONTINUOUS
 62
    7
 10
24756.569
 20
30394.07
 11
24768.397
 21
30364.898
  0
LINE
  8
0-0
  6
CONTINUOUS
 62
    7
 10
24768.397
 20
30364.898
 11
24777.825
 21
30356.801
  0
LINE
  8
0-0
  6
CONTINUOUS
 62
    7
 10
24777.825
 20
30356.801
 11
24787.694
 21
30358.662
  0
LINE
  8
0-0
  6
CONTINUOUS
 62
    7
 10
24787.694
 20
30358.662
 11
24800.323
 21
30377.28
  0
LINE
  8
0-0
  6
CONTINUOUS
 62
    7
 10
24800.323
 20
30377.28
 11
24807.074
 21
30403.232
  0
LINE
  8
0-0
  6
CONTINUOUS
 62
    7
 10
24807.074
 20
30403.232
 11
24810.175
 21
30442.846
  0
LINE
  8
0-0
  6
CONTINUOUS
 62
    7
 10
24683.597
 20
30412.744
 11
24701.977
 21
30323.009
  0
LINE
  8
0-0
  6
CONTINUOUS
 62
    7
 10
24701.977
 20
30323.009
 11
24732.531
 21
30269.285
  0
LINE
  8
0-0
  6
CONTINUOUS
 62
    7
 10
24732.531
 20
30269.285
 11
24777.748
 21
30242.297
  0
LINE
  8
0-0
  6
CONTINUOUS
 62
    7
 10
24777.748
 20
30242.297
 11
24822.132
 21
30250.101
  0
LINE
  8
0-0
  6
CONTINUOUS
 62
    7
 10
24822.132
 20
30250.101
 11
24858.814
 21
30287.972
  0
LINE
  8
0-0
  6
CONTINUOUS
 62
    7
 10
24858.814
 20
30287.972
 11
24890.915
 21
30368.349
  0
LINE
  8
0-0
  6
CONTINUOUS
 62
    7
 10
24890.915
 20
30368.349
 11
24901.456
 21
30456.719
  0
LINE
  8
0-0
  6
CONTINUOUS
 62
    7
 10
24901.456
 20
30456.719
 11
24891.664
 21
30542.883
  0
LINE
  8
0-0
  6
CONTINUOUS
 62
    7
 10
24669.858
 20
30331.254
 11
24707.058
 21
30253.292
  0
LINE
  8
0-0
  6
CONTINUOUS
 62
    7
 10
24707.058
 20
30253.292
 11
24748.776
 21
30214.266
  0
LINE
  8
0-0
  6
CONTINUOUS
 62
    7
 10
24748.776
 20
30214.266
 11
24799.501
 21
30203.606
  0
LINE
  8
0-0
  6
CONTINUOUS
 62
    7
 10
24799.501
 20
30203.606
 11
24851.122
 21
30225.835
  0
LINE
  8
0-0
  6
CONTINUOUS
 62
    7
 10
24851.122
 20
30225.835
 11
24890.138
 21
30274.478
  0
LINE
  8
0-0
  6
CONTINUOUS
 62
    7
 10
24890.138
 20
30274.478
 11
24921.158
 21
30359.67
  0
LINE
  8
0-0
  6
CONTINUOUS
 62
    7
 10
24921.158
 20
30359.67
 11
24931.005
 21
30451.392
  0
LINE
  8
0-0
  6
CONTINUOUS
 62
    7
 10
24931.005
 20
30451.392
 11
24920.748
 21
30542.883
  0
LINE
  8
0-0
  6
CONTINUOUS
 62
    7
 10
24374.602
 20
30829.402
 11
24859.154
 21
30829.402
  0
LINE
  8
0-0
  6
CONTINUOUS
 62
    7
 10
24374.602
 20
30812.541
 11
24859.154
 21
30812.541
  0
LINE
  8
0-0
  6
CONTINUOUS
 62
    7
 10
24798.112
 20
31083.501
 11
24780.775
 21
31079.015
  0
LINE
  8
0-0
  6
CONTINUOUS
 62
    7
 10
24780.775
 20
31079.015
 11
24764.688
 21
31064.989
  0
LINE
  8
0-0
  6
CONTINUOUS
 62
    7
 10
24764.688
 20
31064.989
 11
24754.616
 21
31045.223
  0
LINE
  8
0-0
  6
CONTINUOUS
 62
    7
 10
24754.616
 20
31045.223
 11
24750.84
 21
31020.314
  0
LINE
  8
0-0
  6
CONTINUOUS
 62
    7
 10
24750.84
 20
31020.314
 11
24754.616
 21
30995.39
  0
LINE
  8
0-0
  6
CONTINUOUS
 62
    7
 10
24754.616
 20
30995.39
 11
24764.688
 21
30975.625
  0
LINE
  8
0-0
  6
CONTINUOUS
 62
    7
 10
24764.688
 20
30975.625
 11
24780.775
 21
30961.599
  0
LINE
  8
0-0
  6
CONTINUOUS
 62
    7
 10
24780.775
 20
30961.599
 11
24798.112
 21
30957.12
  0
LINE
  8
0-0
  6
CONTINUOUS
 62
    7
 10
24798.112
 20
30957.12
 11
24815.448
 21
30961.599
  0
LINE
  8
0-0
  6
CONTINUOUS
 62
    7
 10
24815.448
 20
30961.599
 11
24831.539
 21
30975.625
  0
LINE
  8
0-0
  6
CONTINUOUS
 62
    7
 10
24831.539
 20
30975.625
 11
24841.611
 21
30995.39
  0
LINE
  8
0-0
  6
CONTINUOUS
 62
    7
 10
24841.611
 20
30995.39
 11
24845.383
 21
31020.314
  0
LINE
  8
0-0
  6
CONTINUOUS
 62
    7
 10
24845.383
 20
31020.314
 11
24841.611
 21
31045.223
  0
LINE
  8
0-0
  6
CONTINUOUS
 62
    7
 10
24841.611
 20
31045.223
 11
24831.539
 21
31064.989
  0
LINE
  8
0-0
  6
CONTINUOUS
 62
    7
 10
24831.539
 20
31064.989
 11
24815.448
 21
31079.015
  0
LINE
  8
0-0
  6
CONTINUOUS
 62
    7
 10
24815.448
 20
31079.015
 11
24798.112
 21
31083.501
  0
LINE
  8
0-0
  6
CONTINUOUS
 62
    7
 10
24864.287
 20
31076.733
 11
24835.129
 21
31108.9
  0
LINE
  8
0-0
  6
CONTINUOUS
 62
    7
 10
24835.129
 20
31108.9
 11
24799.837
 21
31119.224
  0
LINE
  8
0-0
  6
CONTINUOUS
 62
    7
 10
24799.837
 20
31119.224
 11
24764.359
 21
31108.159
  0
LINE
  8
0-0
  6
CONTINUOUS
 62
    7
 10
24764.359
 20
31108.159
 11
24733.871
 21
31074.948
  0
LINE
  8
0-0
  6
CONTINUOUS
 62
    7
 10
24813.716
 20
31168.889
 11
24780.999
 21
31145.379
  0
LINE
  8
0-0
  6
CONTINUOUS
 62
    7
 10
24780.999
 20
31145.379
 11
24753.64
 21
31100.11
  0
LINE
  8
0-0
  6
CONTINUOUS
 62
    7
 10
24631.392
 20
30889.901
 11
24733.871
 21
31074.948
  0
LINE
  8
0-0
  6
CONTINUOUS
 62
    7
 10
24464.826
 20
30969.067
 11
24471.926
 21
30971.223
  0
LINE
  8
0-0
  6
CONTINUOUS
 62
    7
 10
24471.926
 20
30971.223
 11
24479.002
 21
30978.544
  0
LINE
  8
0-0
  6
CONTINUOUS
 62
    7
 10
24479.002
 20
30978.544
 11
24483.24
 21
30988.496
  0
LINE
  8
0-0
  6
CONTINUOUS
 62
    7
 10
24483.24
 20
30988.496
 11
24484.871
 21
31001.452
  0
LINE
  8
0-0
  6
CONTINUOUS
 62
    7
 10
24484.871
 20
31001.452
 11
24483.24
 21
31014.393
  0
LINE
  8
0-0
  6
CONTINUOUS
 62
    7
 10
24483.24
 20
31014.393
 11
24479.002
 21
31024.345
  0
LINE
  8
0-0
  6
CONTINUOUS
 62
    7
 10
24479.002
 20
31024.345
 11
24471.926
 21
31031.666
  0
LINE
  8
0-0
  6
CONTINUOUS
 62
    7
 10
24471.926
 20
31031.666
 11
24464.826
 21
31033.822
  0
LINE
  8
0-0
  6
CONTINUOUS
 62
    7
 10
24464.826
 20
31033.822
 11
24457.729
 21
31031.666
  0
LINE
  8
0-0
  6
CONTINUOUS
 62
    7
 10
24457.729
 20
31031.666
 11
24450.653
 21
31024.345
  0
LINE
  8
0-0
  6
CONTINUOUS
 62
    7
 10
24450.653
 20
31024.345
 11
24446.415
 21
31014.393
  0
LINE
  8
0-0
  6
CONTINUOUS
 62
    7
 10
24446.415
 20
31014.393
 11
24444.777
 21
31001.452
  0
LINE
  8
0-0
  6
CONTINUOUS
 62
    7
 10
24444.777
 20
31001.452
 11
24446.415
 21
30988.496
  0
LINE
  8
0-0
  6
CONTINUOUS
 62
    7
 10
24446.415
 20
30988.496
 11
24450.653
 21
30978.544
  0
LINE
  8
0-0
  6
CONTINUOUS
 62
    7
 10
24450.653
 20
30978.544
 11
24457.729
 21
30971.223
  0
LINE
  8
0-0
  6
CONTINUOUS
 62
    7
 10
24457.729
 20
30971.223
 11
24464.826
 21
30969.067
  0
LINE
  8
0-0
  6
CONTINUOUS
 62
    7
 10
24417.023
 20
30969.067
 11
24424.127
 21
30971.223
  0
LINE
  8
0-0
  6
CONTINUOUS
 62
    7
 10
24424.127
 20
30971.223
 11
24431.199
 21
30978.544
  0
LINE
  8
0-0
  6
CONTINUOUS
 62
    7
 10
24431.199
 20
30978.544
 11
24435.433
 21
30988.496
  0
LINE
  8
0-0
  6
CONTINUOUS
 62
    7
 10
24435.433
 20
30988.496
 11
24437.068
 21
31001.452
  0
LINE
  8
0-0
  6
CONTINUOUS
 62
    7
 10
24437.068
 20
31001.452
 11
24435.433
 21
31014.393
  0
LINE
  8
0-0
  6
CONTINUOUS
 62
    7
 10
24435.433
 20
31014.393
 11
24431.199
 21
31024.345
  0
LINE
  8
0-0
  6
CONTINUOUS
 62
    7
 10
24431.199
 20
31024.345
 11
24424.127
 21
31031.666
  0
LINE
  8
0-0
  6
CONTINUOUS
 62
    7
 10
24424.127
 20
31031.666
 11
24417.023
 21
31033.822
  0
LINE
  8
0-0
  6
CONTINUOUS
 62
    7
 10
24417.023
 20
31033.822
 11
24409.922
 21
31031.666
  0
LINE
  8
0-0
  6
CONTINUOUS
 62
    7
 10
24409.922
 20
31031.666
 11
24402.85
 21
31024.345
  0
LINE
  8
0-0
  6
CONTINUOUS
 62
    7
 10
24402.85
 20
31024.345
 11
24398.608
 21
31014.393
  0
LINE
  8
0-0
  6
CONTINUOUS
 62
    7
 10
24398.608
 20
31014.393
 11
24396.977
 21
31001.452
  0
LINE
  8
0-0
  6
CONTINUOUS
 62
    7
 10
24396.977
 20
31001.452
 11
24398.608
 21
30988.496
  0
LINE
  8
0-0
  6
CONTINUOUS
 62
    7
 10
24398.608
 20
30988.496
 11
24402.85
 21
30978.544
  0
LINE
  8
0-0
  6
CONTINUOUS
 62
    7
 10
24402.85
 20
30978.544
 11
24409.922
 21
30971.223
  0
LINE
  8
0-0
  6
CONTINUOUS
 62
    7
 10
24409.922
 20
30971.223
 11
24417.023
 21
30969.067
  0
LINE
  8
0-0
  6
CONTINUOUS
 62
    7
 10
24440.921
 20
31043.047
 11
24426.737
 21
31053.44
  0
LINE
  8
0-0
  6
CONTINUOUS
 62
    7
 10
24426.737
 20
31053.44
 11
24412.193
 21
31054.966
  0
LINE
  8
0-0
  6
CONTINUOUS
 62
    7
 10
24412.193
 20
31054.966
 11
24398.654
 21
31048.471
  0
LINE
  8
0-0
  6
CONTINUOUS
 62
    7
 10
24398.654
 20
31048.471
 11
24386.535
 21
31032.891
  0
LINE
  8
0-0
  6
CONTINUOUS
 62
    7
 10
24386.535
 20
31032.891
 11
24380.355
 21
31013.294
  0
LINE
  8
0-0
  6
CONTINUOUS
 62
    7
 10
24380.355
 20
31013.294
 11
24380.236
 21
30990.848
  0
LINE
  8
0-0
  6
CONTINUOUS
 62
    7
 10
24501.494
 20
30990.036
 11
24501.606
 21
31012.601
  0
LINE
  8
0-0
  6
CONTINUOUS
 62
    7
 10
24501.606
 20
31012.601
 11
24495.541
 21
31032.45
  0
LINE
  8
0-0
  6
CONTINUOUS
 62
    7
 10
24495.541
 20
31032.45
 11
24483.433
 21
31048.275
  0
LINE
  8
0-0
  6
CONTINUOUS
 62
    7
 10
24483.433
 20
31048.275
 11
24469.844
 21
31054.924
  0
LINE
  8
0-0
  6
CONTINUOUS
 62
    7
 10
24469.844
 20
31054.924
 11
24455.209
 21
31053.468
  0
LINE
  8
0-0
  6
CONTINUOUS
 62
    7
 10
24455.209
 20
31053.468
 11
24440.921
 21
31043.047
  0
LINE
  8
0-0
  6
CONTINUOUS
 62
    7
 10
24690.617
 20
29488.09
 11
24703.471
 21
29514.791
  0
LINE
  8
0-0
  6
CONTINUOUS
 62
    7
 10
24682.191
 20
29488.09
 11
24695.041
 21
29514.791
  0
LINE
  8
0-0
  6
CONTINUOUS
 62
    7
 10
24682.191
 20
29488.09
 11
24690.617
 21
29488.09
  0
LINE
  8
0-0
  6
CONTINUOUS
 62
    7
 10
24539.957
 20
29488.09
 11
24552.814
 21
29514.791
  0
LINE
  8
0-0
  6
CONTINUOUS
 62
    7
 10
24531.533
 20
29488.09
 11
24544.387
 21
29514.791
  0
LINE
  8
0-0
  6
CONTINUOUS
 62
    7
 10
24531.533
 20
29488.09
 11
24539.957
 21
29488.09
  0
LINE
  8
0-0
  6
CONTINUOUS
 62
    7
 10
24546.55
 20
29501.773
 11
24613.506
 21
29461.06
  0
LINE
  8
0-0
  6
CONTINUOUS
 62
    7
 10
24613.506
 20
29461.06
 11
24682.191
 21
29461.06
  0
LINE
  8
0-0
  6
CONTINUOUS
 62
    7
 10
24546.55
 20
29501.773
 11
24688.777
 21
29501.773
  0
LINE
  8
0-0
  6
CONTINUOUS
 62
    7
 10
24550.2
 20
29509.367
 11
24692.434
 21
29509.367
  0
LINE
  8
0-0
  6
CONTINUOUS
 62
    7
 10
24552.814
 20
29514.791
 11
24561.731
 21
29509.367
  0
LINE
  8
0-0
  6
CONTINUOUS
 62
    7
 10
24613.506
 20
29407.217
 11
24613.506
 21
29461.06
  0
LINE
  8
0-0
  6
CONTINUOUS
 62
    7
 10
24539.957
 20
29384.232
 11
24539.957
 21
29488.09
  0
LINE
  8
0-0
  6
CONTINUOUS
 62
    7
 10
24531.533
 20
29370.444
 11
24531.533
 21
29488.09
  0
LINE
  8
0-0
  6
CONTINUOUS
 62
    7
 10
24569.611
 20
29407.217
 11
24682.191
 21
29407.217
  0
LINE
  8
0-0
  6
CONTINUOUS
 62
    7
 10
24367.491
 20
29514.791
 11
24377.839
 21
29514.791
  0
LINE
  8
0-0
  6
CONTINUOUS
 62
    7
 10
24353.534
 20
29370.661
 11
24353.534
 21
29488.09
  0
LINE
  8
0-0
  6
CONTINUOUS
 62
    7
 10
24690.617
 20
29448.588
 11
24732.562
 21
29448.588
  0
LINE
  8
0-0
  6
CONTINUOUS
 62
    7
 10
24562.567
 20
29413.922
 11
24574.707
 21
29413.922
  0
LINE
  8
0-0
  6
CONTINUOUS
 62
    7
 10
24574.707
 20
29413.922
 11
24580.442
 21
29407.217
  0
LINE
  8
0-0
  6
CONTINUOUS
 62
    7
 10
24353.534
 20
29488.09
 11
24367.491
 21
29514.791
  0
LINE
  8
0-0
  6
CONTINUOUS
 62
    7
 10
24544.387
 20
29514.791
 11
24552.814
 21
29514.791
  0
LINE
  8
0-0
  6
CONTINUOUS
 62
    7
 10
24695.041
 20
29514.791
 11
24702.509
 21
29514.791
  0
LINE
  8
0-0
  6
CONTINUOUS
 62
    7
 10
24741.269
 20
29666.628
 11
24729.311
 21
29666.628
  0
LINE
  8
0-0
  6
CONTINUOUS
 62
    7
 10
24693.508
 20
29628.644
 11
24685.074
 21
29625.446
  0
LINE
  8
0-0
  6
CONTINUOUS
 62
    7
 10
24685.074
 20
29625.446
 11
24675.402
 21
29612.323
  0
LINE
  8
0-0
  6
CONTINUOUS
 62
    7
 10
24675.402
 20
29612.323
 11
24669.921
 21
29595.434
  0
LINE
  8
0-0
  6
CONTINUOUS
 62
    7
 10
24669.921
 20
29595.434
 11
24667.591
 21
29572.596
  0
LINE
  8
0-0
  6
CONTINUOUS
 62
    7
 10
24667.591
 20
29572.596
 11
24669.491
 21
29549.717
  0
LINE
  8
0-0
  6
CONTINUOUS
 62
    7
 10
24669.491
 20
29549.717
 11
24674.653
 21
29532.723
  0
LINE
  8
0-0
  6
CONTINUOUS
 62
    7
 10
24674.653
 20
29532.723
 11
24684.077
 21
29519.432
  0
LINE
  8
0-0
  6
CONTINUOUS
 62
    7
 10
24684.077
 20
29519.432
 11
24692.448
 21
29516.079
  0
LINE
  8
0-0
  6
CONTINUOUS
 62
    7
 10
24692.448
 20
29516.079
 11
24700.881
 21
29519.278
  0
LINE
  8
0-0
  6
CONTINUOUS
 62
    7
 10
24700.881
 20
29519.278
 11
24710.551
 21
29532.387
  0
LINE
  8
0-0
  6
CONTINUOUS
 62
    7
 10
24710.551
 20
29532.387
 11
24716.031
 21
29549.283
  0
LINE
  8
0-0
  6
CONTINUOUS
 62
    7
 10
24716.031
 20
29549.283
 11
24718.365
 21
29572.12
  0
LINE
  8
0-0
  6
CONTINUOUS
 62
    7
 10
24718.365
 20
29572.12
 11
24716.461
 21
29594.993
  0
LINE
  8
0-0
  6
CONTINUOUS
 62
    7
 10
24716.461
 20
29594.993
 11
24711.303
 21
29611.987
  0
LINE
  8
0-0
  6
CONTINUOUS
 62
    7
 10
24711.303
 20
29611.987
 11
24701.875
 21
29625.285
  0
LINE
  8
0-0
  6
CONTINUOUS
 62
    7
 10
24701.875
 20
29625.285
 11
24693.508
 21
29628.644
  0
LINE
  8
0-0
  6
CONTINUOUS
 62
    7
 10
24693.4
 20
29628.644
 11
24706.285
 21
29628.644
  0
LINE
  8
0-0
  6
CONTINUOUS
 62
    7
 10
24699.013
 20
29517.92
 11
24708.79
 21
29517.087
  0
LINE
  8
0-0
  6
CONTINUOUS
 62
    7
 10
24708.79
 20
29517.087
 11
24719.702
 21
29525.689
  0
LINE
  8
0-0
  6
CONTINUOUS
 62
    7
 10
24719.702
 20
29525.689
 11
24726.753
 21
29540.793
  0
LINE
  8
0-0
  6
CONTINUOUS
 62
    7
 10
24726.753
 20
29540.793
 11
24730.984
 21
29565.163
  0
LINE
  8
0-0
  6
CONTINUOUS
 62
    7
 10
24730.984
 20
29565.163
 11
24730.19
 21
29590.031
  0
LINE
  8
0-0
  6
CONTINUOUS
 62
    7
 10
24730.19
 20
29590.031
 11
24725.207
 21
29609.523
  0
LINE
  8
0-0
  6
CONTINUOUS
 62
    7
 10
24725.207
 20
29609.523
 11
24715.219
 21
29624.914
  0
LINE
  8
0-0
  6
CONTINUOUS
 62
    7
 10
24715.219
 20
29624.914
 11
24706.285
 21
29628.644
  0
LINE
  8
0-0
  6
CONTINUOUS
 62
    7
 10
24679.111
 20
29618.993
 11
24605.107
 21
29509.367
  0
LINE
  8
0-0
  6
CONTINUOUS
 62
    7
 10
24739.512
 20
29612.589
 11
24730.169
 21
29625.439
  0
LINE
  8
0-0
  6
CONTINUOUS
 62
    7
 10
24730.169
 20
29625.439
 11
24721.878
 21
29628.644
  0
LINE
  8
0-0
  6
CONTINUOUS
 62
    7
 10
24704.311
 20
29628.644
 11
24721.878
 21
29628.644
  0
LINE
  8
0-0
  6
CONTINUOUS
 62
    7
 10
24757.916
 20
29579.861
 11
24754.812
 21
29619.476
  0
LINE
  8
0-0
  6
CONTINUOUS
 62
    7
 10
24754.812
 20
29619.476
 11
24748.058
 21
29645.442
  0
LINE
  8
0-0
  6
CONTINUOUS
 62
    7
 10
24748.058
 20
29645.442
 11
24735.436
 21
29664.045
  0
LINE
  8
0-0
  6
CONTINUOUS
 62
    7
 10
24735.436
 20
29664.045
 11
24725.56
 21
29665.907
  0
LINE
  8
0-0
  6
CONTINUOUS
 62
    7
 10
24725.56
 20
29665.907
 11
24716.139
 21
29657.809
  0
LINE
  8
0-0
  6
CONTINUOUS
 62
    7
 10
24716.139
 20
29657.809
 11
24704.311
 21
29628.644
  0
LINE
  8
0-0
  6
CONTINUOUS
 62
    7
 10
24505.221
 20
30559.73
 11
24505.221
 21
30812.541
  0
LINE
  8
0-0
  6
CONTINUOUS
 62
    7
 10
24732.751
 20
30749.326
 11
24715.415
 21
30744.847
  0
LINE
  8
0-0
  6
CONTINUOUS
 62
    7
 10
24715.415
 20
30744.847
 11
24699.324
 21
30730.821
  0
LINE
  8
0-0
  6
CONTINUOUS
 62
    7
 10
24699.324
 20
30730.821
 11
24689.253
 21
30711.056
  0
LINE
  8
0-0
  6
CONTINUOUS
 62
    7
 10
24689.253
 20
30711.056
 11
24685.48
 21
30686.132
  0
LINE
  8
0-0
  6
CONTINUOUS
 62
    7
 10
24685.48
 20
30686.132
 11
24689.253
 21
30661.223
  0
LINE
  8
0-0
  6
CONTINUOUS
 62
    7
 10
24689.253
 20
30661.223
 11
24699.324
 21
30641.45
  0
LINE
  8
0-0
  6
CONTINUOUS
 62
    7
 10
24699.324
 20
30641.45
 11
24715.415
 21
30627.431
  0
LINE
  8
0-0
  6
CONTINUOUS
 62
    7
 10
24715.415
 20
30627.431
 11
24732.751
 21
30622.945
  0
LINE
  8
0-0
  6
CONTINUOUS
 62
    7
 10
24732.751
 20
30721.813
 11
24726.442
 21
30719.594
  0
LINE
  8
0-0
  6
CONTINUOUS
 62
    7
 10
24726.442
 20
30719.594
 11
24719.688
 21
30711.364
  0
LINE
  8
0-0
  6
CONTINUOUS
 62
    7
 10
24719.688
 20
30711.364
 11
24715.803
 21
30700.543
  0
LINE
  8
0-0
  6
CONTINUOUS
 62
    7
 10
24715.803
 20
30700.543
 11
24714.274
 21
30686.132
  0
LINE
  8
0-0
  6
CONTINUOUS
 62
    7
 10
24714.274
 20
30686.132
 11
24715.803
 21
30671.728
  0
LINE
  8
0-0
  6
CONTINUOUS
 62
    7
 10
24715.803
 20
30671.728
 11
24719.688
 21
30660.915
  0
LINE
  8
0-0
  6
CONTINUOUS
 62
    7
 10
24719.688
 20
30660.915
 11
24726.442
 21
30652.677
  0
LINE
  8
0-0
  6
CONTINUOUS
 62
    7
 10
24726.442
 20
30652.677
 11
24732.751
 21
30650.458
  0
LINE
  8
0-0
  6
CONTINUOUS
 62
    7
 10
24741.175
 20
30721.813
 11
24734.869
 21
30719.594
  0
LINE
  8
0-0
  6
CONTINUOUS
 62
    7
 10
24734.869
 20
30719.594
 11
24728.111
 21
30711.364
  0
LINE
  8
0-0
  6
CONTINUOUS
 62
    7
 10
24728.111
 20
30711.364
 11
24724.23
 21
30700.543
  0
LINE
  8
0-0
  6
CONTINUOUS
 62
    7
 10
24724.23
 20
30700.543
 11
24722.701
 21
30686.132
  0
LINE
  8
0-0
  6
CONTINUOUS
 62
    7
 10
24722.701
 20
30686.132
 11
24724.23
 21
30671.728
  0
LINE
  8
0-0
  6
CONTINUOUS
 62
    7
 10
24724.23
 20
30671.728
 11
24728.111
 21
30660.915
  0
LINE
  8
0-0
  6
CONTINUOUS
 62
    7
 10
24728.111
 20
30660.915
 11
24734.869
 21
30652.677
  0
LINE
  8
0-0
  6
CONTINUOUS
 62
    7
 10
24734.869
 20
30652.677
 11
24741.175
 21
30650.458
  0
LINE
  8
0-0
  6
CONTINUOUS
 62
    7
 10
24741.175
 20
30650.458
 11
24747.484
 21
30652.677
  0
LINE
  8
0-0
  6
CONTINUOUS
 62
    7
 10
24747.484
 20
30652.677
 11
24754.238
 21
30660.915
  0
LINE
  8
0-0
  6
CONTINUOUS
 62
    7
 10
24754.238
 20
30660.915
 11
24758.13
 21
30671.728
  0
LINE
  8
0-0
  6
CONTINUOUS
 62
    7
 10
24758.13
 20
30671.728
 11
24759.652
 21
30686.132
  0
LINE
  8
0-0
  6
CONTINUOUS
 62
    7
 10
24759.652
 20
30686.132
 11
24758.13
 21
30700.543
  0
LINE
  8
0-0
  6
CONTINUOUS
 62
    7
 10
24758.13
 20
30700.543
 11
24754.238
 21
30711.364
  0
LINE
  8
0-0
  6
CONTINUOUS
 62
    7
 10
24754.238
 20
30711.364
 11
24747.484
 21
30719.594
  0
LINE
  8
0-0
  6
CONTINUOUS
 62
    7
 10
24747.484
 20
30719.594
 11
24741.175
 21
30721.813
  0
LINE
  8
0-0
  6
CONTINUOUS
 62
    7
 10
24374.602
 20
30559.73
 11
24313.931
 21
30605.238
  0
LINE
  8
0-0
  6
CONTINUOUS
 62
    7
 10
24273.483
 20
30686.132
 11
24238.975
 21
30433.328
  0
LINE
  8
0-0
  6
CONTINUOUS
 62
    7
 10
24374.602
 20
30559.73
 11
24374.602
 21
30542.883
  0
LINE
  8
0-0
  6
CONTINUOUS
 62
    7
 10
24732.751
 20
30559.73
 11
24679.499
 21
30616.8
  0
LINE
  8
0-0
  6
CONTINUOUS
 62
    7
 10
24661.124
 20
30622.945
 11
24720.108
 21
30559.73
  0
LINE
  8
0-0
  6
CONTINUOUS
 62
    7
 10
24685.27
 20
30422.647
 11
24706.712
 21
30574.092
  0
LINE
  8
0-0
  6
CONTINUOUS
 62
    7
 10
24379.763
 20
30433.328
 11
24417.736
 21
30542.883
  0
LINE
  8
0-0
  6
CONTINUOUS
 62
    7
 10
24608.547
 20
30433.328
 11
24616.673
 21
30684.914
  0
LINE
  8
0-0
  6
CONTINUOUS
 62
    7
 10
24532.706
 20
30433.328
 11
24540.828
 21
30684.914
  0
LINE
  8
0-0
  6
CONTINUOUS
 62
    7
 10
24732.751
 20
30622.945
 11
24741.175
 21
30622.945
  0
LINE
  8
0-0
  6
CONTINUOUS
 62
    7
 10
24732.751
 20
30650.458
 11
24741.175
 21
30650.458
  0
LINE
  8
0-0
  6
CONTINUOUS
 62
    7
 10
24526.288
 20
30622.945
 11
24538.406
 21
30609.962
  0
LINE
  8
0-0
  6
CONTINUOUS
 62
    7
 10
24374.602
 20
30559.73
 11
24536.786
 21
30559.73
  0
LINE
  8
0-0
  6
CONTINUOUS
 62
    7
 10
24374.602
 20
30542.883
 11
24536.24
 21
30542.883
  0
LINE
  8
0-0
  6
CONTINUOUS
 62
    7
 10
24745.658
 20
30394.07
 11
24758.546
 21
30394.07
  0
LINE
  8
0-0
  6
CONTINUOUS
 62
    7
 10
24691.044
 20
30463.459
 11
24731.373
 21
30403.722
  0
LINE
  8
0-0
  6
CONTINUOUS
 62
    7
 10
24374.602
 20
30812.541
 11
24313.931
 21
30767.034
  0
LINE
  8
0-0
  6
CONTINUOUS
 62
    7
 10
24374.602
 20
30812.541
 11
24374.602
 21
30829.402
  0
LINE
  8
0-0
  6
CONTINUOUS
 62
    7
 10
24661.124
 20
30749.326
 11
24720.108
 21
30812.541
  0
LINE
  8
0-0
  6
CONTINUOUS
 62
    7
 10
24526.288
 20
30749.326
 11
24585.282
 21
30812.541
  0
LINE
  8
0-0
  6
CONTINUOUS
 62
    7
 10
24578.77
 20
30749.326
 11
24661.124
 21
30749.326
  0
LINE
  8
0-0
  6
CONTINUOUS
 62
    7
 10
24732.751
 20
30749.326
 11
24741.175
 21
30749.326
  0
LINE
  8
0-0
  6
CONTINUOUS
 62
    7
 10
24732.751
 20
30721.813
 11
24742.186
 21
30721.813
  0
LINE
  8
0-0
  6
CONTINUOUS
 62
    7
 10
24626.115
 20
30829.402
 11
24626.115
 21
30869.485
  0
LINE
  8
0-0
  6
CONTINUOUS
 62
    7
 10
24674.726
 20
30829.402
 11
24674.726
 21
30968.15
  0
LINE
  8
0-0
  6
CONTINUOUS
 62
    7
 10
24551.18
 20
30904.354
 11
24540.387
 21
30904.354
  0
LINE
  8
0-0
  6
CONTINUOUS
 62
    7
 10
24540.037
 20
30864.152
 11
24550.994
 21
30864.152
  0
LINE
  8
0-0
  6
CONTINUOUS
 62
    7
 10
24495.107
 20
30947.496
 11
24665.291
 21
30947.496
  0
LINE
  8
0-0
  6
CONTINUOUS
 62
    7
 10
24477.354
 20
30829.402
 11
24501.494
 21
30990.036
  0
LINE
  8
0-0
  6
CONTINUOUS
 62
    7
 10
24380.236
 20
30990.848
 11
24402.703
 21
30829.402
  0
LINE
  8
0-0
  6
CONTINUOUS
 62
    7
 10
24732.751
 20
30812.541
 11
24679.499
 21
30755.471
  0
LINE
  8
0-0
  6
CONTINUOUS
 62
    7
 10
24597.919
 20
30812.541
 11
24544.663
 21
30755.471
  0
LINE
  8
0-0
  6
CONTINUOUS
 62
    7
 10
24467.408
 20
31055.281
 11
24730.057
 21
31055.281
  0
LINE
  8
0-0
  6
CONTINUOUS
 62
    7
 10
24417.023
 20
31055.414
 11
24464.826
 21
31055.414
  0
LINE
  8
0-0
  6
CONTINUOUS
 62
    7
 10
24806.539
 20
30957.12
 11
24823.875
 21
30961.599
  0
LINE
  8
0-0
  6
CONTINUOUS
 62
    7
 10
24823.875
 20
30961.599
 11
24839.962
 21
30975.625
  0
LINE
  8
0-0
  6
CONTINUOUS
 62
    7
 10
24839.962
 20
30975.625
 11
24850.037
 21
30995.39
  0
LINE
  8
0-0
  6
CONTINUOUS
 62
    7
 10
24850.037
 20
30995.39
 11
24853.81
 21
31020.314
  0
LINE
  8
0-0
  6
CONTINUOUS
 62
    7
 10
24853.81
 20
31020.314
 11
24850.037
 21
31045.223
  0
LINE
  8
0-0
  6
CONTINUOUS
 62
    7
 10
24850.037
 20
31045.223
 11
24839.962
 21
31064.989
  0
LINE
  8
0-0
  6
CONTINUOUS
 62
    7
 10
24839.962
 20
31064.989
 11
24823.875
 21
31079.015
  0
LINE
  8
0-0
  6
CONTINUOUS
 62
    7
 10
24823.875
 20
31079.015
 11
24806.539
 21
31083.501
  0
LINE
  8
0-0
  6
CONTINUOUS
 62
    7
 10
24806.539
 20
30984.633
 11
24812.848
 21
30986.852
  0
LINE
  8
0-0
  6
CONTINUOUS
 62
    7
 10
24812.848
 20
30986.852
 11
24819.602
 21
30995.083
  0
LINE
  8
0-0
  6
CONTINUOUS
 62
    7
 10
24819.602
 20
30995.083
 11
24823.49
 21
31005.903
  0
LINE
  8
0-0
  6
CONTINUOUS
 62
    7
 10
24823.49
 20
31005.903
 11
24825.016
 21
31020.314
  0
LINE
  8
0-0
  6
CONTINUOUS
 62
    7
 10
24825.016
 20
31020.314
 11
24823.49
 21
31034.718
  0
LINE
  8
0-0
  6
CONTINUOUS
 62
    7
 10
24823.49
 20
31034.718
 11
24819.602
 21
31045.531
  0
LINE
  8
0-0
  6
CONTINUOUS
 62
    7
 10
24819.602
 20
31045.531
 11
24812.848
 21
31053.769
  0
LINE
  8
0-0
  6
CONTINUOUS
 62
    7
 10
24812.848
 20
31053.769
 11
24806.539
 21
31055.988
  0
LINE
  8
0-0
  6
CONTINUOUS
 62
    7
 10
24798.112
 20
31055.988
 11
24791.806
 21
31053.769
  0
LINE
  8
0-0
  6
CONTINUOUS
 62
    7
 10
24791.806
 20
31053.769
 11
24785.045
 21
31045.531
  0
LINE
  8
0-0
  6
CONTINUOUS
 62
    7
 10
24785.045
 20
31045.531
 11
24781.167
 21
31034.718
  0
LINE
  8
0-0
  6
CONTINUOUS
 62
    7
 10
24781.167
 20
31034.718
 11
24779.638
 21
31020.314
  0
LINE
  8
0-0
  6
CONTINUOUS
 62
    7
 10
24779.638
 20
31020.314
 11
24781.167
 21
31005.903
  0
LINE
  8
0-0
  6
CONTINUOUS
 62
    7
 10
24781.167
 20
31005.903
 11
24785.045
 21
30995.083
  0
LINE
  8
0-0
  6
CONTINUOUS
 62
    7
 10
24785.045
 20
30995.083
 11
24791.806
 21
30986.852
  0
LINE
  8
0-0
  6
CONTINUOUS
 62
    7
 10
24791.806
 20
30986.852
 11
24798.112
 21
30984.633
  0
LINE
  8
0-0
  6
CONTINUOUS
 62
    7
 10
24798.112
 20
30984.633
 11
24804.421
 21
30986.852
  0
LINE
  8
0-0
  6
CONTINUOUS
 62
    7
 10
24804.421
 20
30986.852
 11
24811.175
 21
30995.083
  0
LINE
  8
0-0
  6
CONTINUOUS
 62
    7
 10
24811.175
 20
30995.083
 11
24815.06
 21
31005.903
  0
LINE
  8
0-0
  6
CONTINUOUS
 62
    7
 10
24815.06
 20
31005.903
 11
24816.589
 21
31020.314
  0
LINE
  8
0-0
  6
CONTINUOUS
 62
    7
 10
24816.589
 20
31020.314
 11
24815.06
 21
31034.718
  0
LINE
  8
0-0
  6
CONTINUOUS
 62
    7
 10
24815.06
 20
31034.718
 11
24811.175
 21
31045.531
  0
LINE
  8
0-0
  6
CONTINUOUS
 62
    7
 10
24811.175
 20
31045.531
 11
24804.421
 21
31053.769
  0
LINE
  8
0-0
  6
CONTINUOUS
 62
    7
 10
24804.421
 20
31053.769
 11
24798.112
 21
31055.988
  0
LINE
  8
0-0
  6
CONTINUOUS
 62
    7
 10
24864.287
 20
31076.733
 11
24910.89
 21
30988.286
  0
LINE
  8
0-0
  6
CONTINUOUS
 62
    7
 10
24878.52
 20
31076.733
 11
24925.385
 21
30987.79
  0
LINE
  8
0-0
  6
CONTINUOUS
 62
    7
 10
24965.98
 20
31042.081
 11
25050.251
 21
30889.901
  0
LINE
  8
0-0
  6
CONTINUOUS
 62
    7
 10
24969.304
 20
29362.22
 11
24934.998
 21
29362.22
  0
LINE
  8
0-0
  6
CONTINUOUS
 62
    7
 10
25027.697
 20
29488.09
 11
25014.843
 21
29514.791
  0
LINE
  8
0-0
  6
CONTINUOUS
 62
    7
 10
25036.124
 20
29488.09
 11
25023.27
 21
29514.791
  0
LINE
  8
0-0
  6
CONTINUOUS
 62
    7
 10
25036.124
 20
29488.09
 11
25027.697
 21
29488.09
  0
LINE
  8
0-0
  6
CONTINUOUS
 62
    7
 10
25014.843
 20
29514.791
 11
24905.984
 21
29448.588
  0
LINE
  8
0-0
  6
CONTINUOUS
 62
    7
 10
25178.351
 20
29488.09
 11
25165.493
 21
29514.791
  0
LINE
  8
0-0
  6
CONTINUOUS
 62
    7
 10
25186.774
 20
29488.09
 11
25173.927
 21
29514.791
  0
LINE
  8
0-0
  6
CONTINUOUS
 62
    7
 10
25186.774
 20
29488.09
 11
25178.351
 21
29488.09
  0
LINE
  8
0-0
  6
CONTINUOUS
 62
    7
 10
25171.764
 20
29501.773
 11
25104.808
 21
29461.06
  0
LINE
  8
0-0
  6
CONTINUOUS
 62
    7
 10
25104.808
 20
29461.06
 11
25036.124
 21
29461.06
  0
LINE
  8
0-0
  6
CONTINUOUS
 62
    7
 10
25171.764
 20
29501.773
 11
25029.531
 21
29501.773
  0
LINE
  8
0-0
  6
CONTINUOUS
 62
    7
 10
25168.107
 20
29509.367
 11
25025.881
 21
29509.367
  0
LINE
  8
0-0
  6
CONTINUOUS
 62
    7
 10
25165.493
 20
29514.791
 11
25156.584
 21
29509.367
  0
LINE
  8
0-0
  6
CONTINUOUS
 62
    7
 10
25104.808
 20
29407.217
 11
25104.808
 21
29461.06
  0
LINE
  8
0-0
  6
CONTINUOUS
 62
    7
 10
25178.351
 20
29384.232
 11
25178.351
 21
29488.09
  0
LINE
  8
0-0
  6
CONTINUOUS
 62
    7
 10
25186.774
 20
29370.444
 11
25186.774
 21
29488.09
  0
LINE
  8
0-0
  6
CONTINUOUS
 62
    7
 10
25148.699
 20
29407.217
 11
25036.124
 21
29407.217
  0
LINE
  8
0-0
  6
CONTINUOUS
 62
    7
 10
25350.817
 20
29514.791
 11
25340.476
 21
29514.791
  0
LINE
  8
0-0
  6
CONTINUOUS
 62
    7
 10
25364.773
 20
29370.661
 11
25364.773
 21
29488.09
  0
LINE
  8
0-0
  6
CONTINUOUS
 62
    7
 10
24970.938
 20
29488.09
 11
24859.154
 21
29488.09
  0
LINE
  8
0-0
  6
CONTINUOUS
 62
    7
 10
25027.697
 20
29448.588
 11
24985.745
 21
29448.588
  0
LINE
  8
0-0
  6
CONTINUOUS
 62
    7
 10
25027.697
 20
29432.602
 11
24859.154
 21
29432.602
  0
LINE
  8
0-0
  6
CONTINUOUS
 62
    7
 10
24859.154
 20
29448.588
 11
25027.697
 21
29448.588
  0
LINE
  8
0-0
  6
CONTINUOUS
 62
    7
 10
25155.74
 20
29413.922
 11
25143.6
 21
29413.922
  0
LINE
  8
0-0
  6
CONTINUOUS
 62
    7
 10
25143.6
 20
29413.922
 11
25137.865
 21
29407.217
  0
LINE
  8
0-0
  6
CONTINUOUS
 62
    7
 10
25364.773
 20
29488.09
 11
25350.817
 21
29514.791
  0
LINE
  8
0-0
  6
CONTINUOUS
 62
    7
 10
25173.927
 20
29514.791
 11
25165.493
 21
29514.791
  0
LINE
  8
0-0
  6
CONTINUOUS
 62
    7
 10
25023.27
 20
29514.791
 11
25015.798
 21
29514.791
  0
LINE
  8
0-0
  6
CONTINUOUS
 62
    7
 10
24937.662
 20
29488.09
 11
24946.106
 21
29576.005
  0
LINE
  8
0-0
  6
CONTINUOUS
 62
    7
 10
24946.106
 20
29576.005
 11
24936.286
 21
29663.157
  0
LINE
  8
0-0
  6
CONTINUOUS
 62
    7
 10
24936.286
 20
29663.157
 11
24907.275
 21
29744.562
  0
LINE
  8
0-0
  6
CONTINUOUS
 62
    7
 10
24907.275
 20
29744.562
 11
24870.586
 21
29793.072
  0
LINE
  8
0-0
  6
CONTINUOUS
 62
    7
 10
24870.586
 20
29793.072
 11
24821.184
 21
29818.423
  0
LINE
  8
0-0
  6
CONTINUOUS
 62
    7
 10
24821.184
 20
29818.423
 11
24773.237
 21
29813.222
  0
LINE
  8
0-0
  6
CONTINUOUS
 62
    7
 10
24954.519
 20
29488.09
 11
24962.889
 21
29568.061
  0
LINE
  8
0-0
  6
CONTINUOUS
 62
    7
 10
24962.889
 20
29568.061
 11
24956.016
 21
29648.795
  0
LINE
  8
0-0
  6
CONTINUOUS
 62
    7
 10
24956.016
 20
29648.795
 11
24933.2
 21
29725.826
  0
LINE
  8
0-0
  6
CONTINUOUS
 62
    7
 10
24933.2
 20
29725.826
 11
24902.107
 21
29777.471
  0
LINE
  8
0-0
  6
CONTINUOUS
 62
    7
 10
24902.107
 20
29777.471
 11
24857.673
 21
29812.718
  0
LINE
  8
0-0
  6
CONTINUOUS
 62
    7
 10
24857.673
 20
29812.718
 11
24815.371
 21
29820.179
  0
LINE
  8
0-0
  6
CONTINUOUS
 62
    7
 10
25042.493
 20
29509.367
 11
25043.924
 21
29629.582
  0
LINE
  8
0-0
  6
CONTINUOUS
 62
    7
 10
25043.924
 20
29629.582
 11
25015.473
 21
29729.913
  0
LINE
  8
0-0
  6
CONTINUOUS
 62
    7
 10
25015.473
 20
29729.913
 11
24956.867
 21
29803.921
  0
LINE
  8
0-0
  6
CONTINUOUS
 62
    7
 10
24956.867
 20
29803.921
 11
24899.646
 21
29820.179
  0
LINE
  8
0-0
  6
CONTINUOUS
 62
    7
 10
25109.911
 20
29509.367
 11
25114.033
 21
29595.308
  0
LINE
  8
0-0
  6
CONTINUOUS
 62
    7
 10
25114.033
 20
29595.308
 11
25101.557
 21
29676.812
  0
LINE
  8
0-0
  6
CONTINUOUS
 62
    7
 10
25101.557
 20
29676.812
 11
25071.472
 21
29752.205
  0
LINE
  8
0-0
  6
CONTINUOUS
 62
    7
 10
25071.472
 20
29752.205
 11
25035.399
 21
29796.376
  0
LINE
  8
0-0
  6
CONTINUOUS
 62
    7
 10
25035.399
 20
29796.376
 11
24987.97
 21
29818.843
  0
LINE
  8
0-0
  6
CONTINUOUS
 62
    7
 10
24987.97
 20
29818.843
 11
24941.773
 21
29813.222
  0
LINE
  8
0-0
  6
CONTINUOUS
 62
    7
 10
25025.695
 20
29509.752
 11
25029.744
 21
29595.651
  0
LINE
  8
0-0
  6
CONTINUOUS
 62
    7
 10
25029.744
 20
29595.651
 11
25017.219
 21
29677.064
  0
LINE
  8
0-0
  6
CONTINUOUS
 62
    7
 10
25017.219
 20
29677.064
 11
24987.127
 21
29752.331
  0
LINE
  8
0-0
  6
CONTINUOUS
 62
    7
 10
24987.127
 20
29752.331
 11
24951.065
 21
29796.439
  0
LINE
  8
0-0
  6
CONTINUOUS
 62
    7
 10
24951.065
 20
29796.439
 11
24903.667
 21
29818.843
  0
LINE
  8
0-0
  6
CONTINUOUS
 62
    7
 10
24903.667
 20
29818.843
 11
24857.505
 21
29813.222
  0
LINE
  8
0-0
  6
CONTINUOUS
 62
    7
 10
25343.706
 20
30559.73
 11
25404.384
 21
30605.238
  0
LINE
  8
0-0
  6
CONTINUOUS
 62
    7
 10
25343.706
 20
30812.541
 11
25404.384
 21
30767.034
  0
LINE
  8
0-0
  6
CONTINUOUS
 62
    7
 10
24791.743
 20
30559.73
 11
24791.743
 21
30812.541
  0
LINE
  8
0-0
  6
CONTINUOUS
 62
    7
 10
24926.572
 20
30559.73
 11
24926.572
 21
30812.541
  0
LINE
  8
0-0
  6
CONTINUOUS
 62
    7
 10
25213.087
 20
30559.73
 11
25213.087
 21
30812.541
  0
LINE
  8
0-0
  6
CONTINUOUS
 62
    7
 10
24985.563
 20
30622.945
 11
25002.896
 21
30627.431
  0
LINE
  8
0-0
  6
CONTINUOUS
 62
    7
 10
25002.896
 20
30627.431
 11
25018.987
 21
30641.45
  0
LINE
  8
0-0
  6
CONTINUOUS
 62
    7
 10
25018.987
 20
30641.45
 11
25029.062
 21
30661.223
  0
LINE
  8
0-0
  6
CONTINUOUS
 62
    7
 10
25029.062
 20
30661.223
 11
25032.827
 21
30686.132
  0
LINE
  8
0-0
  6
CONTINUOUS
 62
    7
 10
25032.827
 20
30686.132
 11
25029.062
 21
30711.056
  0
LINE
  8
0-0
  6
CONTINUOUS
 62
    7
 10
25029.062
 20
30711.056
 11
25018.987
 21
30730.821
  0
LINE
  8
0-0
  6
CONTINUOUS
 62
    7
 10
25018.987
 20
30730.821
 11
25002.896
 21
30744.847
  0
LINE
  8
0-0
  6
CONTINUOUS
 62
    7
 10
25002.896
 20
30744.847
 11
24985.563
 21
30749.326
  0
LINE
  8
0-0
  6
CONTINUOUS
 62
    7
 10
24985.563
 20
30650.458
 11
24991.865
 21
30652.677
  0
LINE
  8
0-0
  6
CONTINUOUS
 62
    7
 10
24991.865
 20
30652.677
 11
24998.626
 21
30660.915
  0
LINE
  8
0-0
  6
CONTINUOUS
 62
    7
 10
24998.626
 20
30660.915
 11
25002.511
 21
30671.728
  0
LINE
  8
0-0
  6
CONTINUOUS
 62
    7
 10
25002.511
 20
30671.728
 11
25004.037
 21
30686.132
  0
LINE
  8
0-0
  6
CONTINUOUS
 62
    7
 10
25004.037
 20
30686.132
 11
25002.511
 21
30700.543
  0
LINE
  8
0-0
  6
CONTINUOUS
 62
    7
 10
25002.511
 20
30700.543
 11
24998.626
 21
30711.364
  0
LINE
  8
0-0
  6
CONTINUOUS
 62
    7
 10
24998.626
 20
30711.364
 11
24991.865
 21
30719.594
  0
LINE
  8
0-0
  6
CONTINUOUS
 62
    7
 10
24991.865
 20
30719.594
 11
24985.563
 21
30721.813
  0
LINE
  8
0-0
  6
CONTINUOUS
 62
    7
 10
24977.132
 20
30721.813
 11
24970.823
 21
30719.594
  0
LINE
  8
0-0
  6
CONTINUOUS
 62
    7
 10
24970.823
 20
30719.594
 11
24964.069
 21
30711.364
  0
LINE
  8
0-0
  6
CONTINUOUS
 62
    7
 10
24964.069
 20
30711.364
 11
24960.184
 21
30700.543
  0
LINE
  8
0-0
  6
CONTINUOUS
 62
    7
 10
24960.184
 20
30700.543
 11
24958.655
 21
30686.132
  0
LINE
  8
0-0
  6
CONTINUOUS
 62
    7
 10
24958.655
 20
30686.132
 11
24960.184
 21
30671.728
  0
LINE
  8
0-0
  6
CONTINUOUS
 62
    7
 10
24960.184
 20
30671.728
 11
24964.069
 21
30660.915
  0
LINE
  8
0-0
  6
CONTINUOUS
 62
    7
 10
24964.069
 20
30660.915
 11
24970.823
 21
30652.677
  0
LINE
  8
0-0
  6
CONTINUOUS
 62
    7
 10
24970.823
 20
30652.677
 11
24977.132
 21
30650.458
  0
LINE
  8
0-0
  6
CONTINUOUS
 62
    7
 10
24977.132
 20
30650.458
 11
24983.439
 21
30652.677
  0
LINE
  8
0-0
  6
CONTINUOUS
 62
    7
 10
24983.439
 20
30652.677
 11
24990.2
 21
30660.915
  0
LINE
  8
0-0
  6
CONTINUOUS
 62
    7
 10
24990.2
 20
30660.915
 11
24994.084
 21
30671.728
  0
LINE
  8
0-0
  6
CONTINUOUS
 62
    7
 10
24994.084
 20
30671.728
 11
24995.606
 21
30686.132
  0
LINE
  8
0-0
  6
CONTINUOUS
 62
    7
 10
24995.606
 20
30686.132
 11
24994.084
 21
30700.543
  0
LINE
  8
0-0
  6
CONTINUOUS
 62
    7
 10
24994.084
 20
30700.543
 11
24990.2
 21
30711.364
  0
LINE
  8
0-0
  6
CONTINUOUS
 62
    7
 10
24990.2
 20
30711.364
 11
24983.439
 21
30719.594
  0
LINE
  8
0-0
  6
CONTINUOUS
 62
    7
 10
24983.439
 20
30719.594
 11
24977.132
 21
30721.813
  0
LINE
  8
0-0
  6
CONTINUOUS
 62
    7
 10
24977.132
 20
30749.326
 11
24959.799
 21
30744.847
  0
LINE
  8
0-0
  6
CONTINUOUS
 62
    7
 10
24959.799
 20
30744.847
 11
24943.709
 21
30730.821
  0
LINE
  8
0-0
  6
CONTINUOUS
 62
    7
 10
24943.709
 20
30730.821
 11
24933.634
 21
30711.056
  0
LINE
  8
0-0
  6
CONTINUOUS
 62
    7
 10
24933.634
 20
30711.056
 11
24929.861
 21
30686.132
  0
LINE
  8
0-0
  6
CONTINUOUS
 62
    7
 10
24929.861
 20
30686.132
 11
24933.634
 21
30661.223
  0
LINE
  8
0-0
  6
CONTINUOUS
 62
    7
 10
24933.634
 20
30661.223
 11
24943.709
 21
30641.45
  0
LINE
  8
0-0
  6
CONTINUOUS
 62
    7
 10
24943.709
 20
30641.45
 11
24959.799
 21
30627.431
  0
LINE
  8
0-0
  6
CONTINUOUS
 62
    7
 10
24959.799
 20
30627.431
 11
24977.132
 21
30622.945
  0
LINE
  8
0-0
  6
CONTINUOUS
 62
    7
 10
24977.132
 20
30622.945
 11
24994.469
 21
30627.431
  0
LINE
  8
0-0
  6
CONTINUOUS
 62
    7
 10
24994.469
 20
30627.431
 11
25010.556
 21
30641.45
  0
LINE
  8
0-0
  6
CONTINUOUS
 62
    7
 10
25010.556
 20
30641.45
 11
25020.628
 21
30661.223
  0
LINE
  8
0-0
  6
CONTINUOUS
 62
    7
 10
25020.628
 20
30661.223
 11
25024.404
 21
30686.132
  0
LINE
  8
0-0
  6
CONTINUOUS
 62
    7
 10
25024.404
 20
30686.132
 11
25020.628
 21
30711.056
  0
LINE
  8
0-0
  6
CONTINUOUS
 62
    7
 10
25020.628
 20
30711.056
 11
25010.556
 21
30730.821
  0
LINE
  8
0-0
  6
CONTINUOUS
 62
    7
 10
25010.556
 20
30730.821
 11
24994.469
 21
30744.847
  0
LINE
  8
0-0
  6
CONTINUOUS
 62
    7
 10
24994.469
 20
30744.847
 11
24977.132
 21
30749.326
  0
LINE
  8
0-0
  6
CONTINUOUS
 62
    7
 10
25343.706
 20
30559.73
 11
25343.706
 21
30542.883
  0
LINE
  8
0-0
  6
CONTINUOUS
 62
    7
 10
24985.563
 20
30559.73
 11
25038.815
 21
30616.8
  0
LINE
  8
0-0
  6
CONTINUOUS
 62
    7
 10
25057.191
 20
30622.945
 11
24998.199
 21
30559.73
  0
LINE
  8
0-0
  6
CONTINUOUS
 62
    7
 10
25011.596
 20
30574.092
 11
25033.044
 21
30422.647
  0
LINE
  8
0-0
  6
CONTINUOUS
 62
    7
 10
25338.544
 20
30433.328
 11
25300.571
 21
30542.883
  0
LINE
  8
0-0
  6
CONTINUOUS
 62
    7
 10
25109.76
 20
30433.328
 11
25101.641
 21
30684.914
  0
LINE
  8
0-0
  6
CONTINUOUS
 62
    7
 10
25185.602
 20
30433.328
 11
25177.479
 21
30684.914
  0
LINE
  8
0-0
  6
CONTINUOUS
 62
    7
 10
24985.563
 20
30622.945
 11
24977.132
 21
30622.945
  0
LINE
  8
0-0
  6
CONTINUOUS
 62
    7
 10
24985.563
 20
30650.458
 11
24977.132
 21
30650.458
  0
LINE
  8
0-0
  6
CONTINUOUS
 62
    7
 10
25192.02
 20
30622.945
 11
25179.901
 21
30609.962
  0
LINE
  8
0-0
  6
CONTINUOUS
 62
    7
 10
24859.154
 20
30559.73
 11
25013.632
 21
30559.73
  0
LINE
  8
0-0
  6
CONTINUOUS
 62
    7
 10
25181.525
 20
30559.73
 11
25343.706
 21
30559.73
  0
LINE
  8
0-0
  6
CONTINUOUS
 62
    7
 10
24859.154
 20
30542.883
 11
25016.015
 21
30542.883
  0
LINE
  8
0-0
  6
CONTINUOUS
 62
    7
 10
25182.067
 20
30542.883
 11
25343.706
 21
30542.883
  0
LINE
  8
0-0
  6
CONTINUOUS
 62
    7
 10
24793.527
 20
30356.087
 11
24781.577
 21
30356.087
  0
LINE
  8
0-0
  6
CONTINUOUS
 62
    7
 10
24774.14
 20
30394.07
 11
24782.427
 21
30397.283
  0
LINE
  8
0-0
  6
CONTINUOUS
 62
    7
 10
24782.427
 20
30397.283
 11
24791.778
 21
30410.119
  0
LINE
  8
0-0
  6
CONTINUOUS
 62
    7
 10
24793.37
 20
30356.087
 11
24803.207
 21
30361.126
  0
LINE
  8
0-0
  6
CONTINUOUS
 62
    7
 10
24803.207
 20
30361.126
 11
24815.707
 21
30388.184
  0
LINE
  8
0-0
  6
CONTINUOUS
 62
    7
 10
24815.707
 20
30388.184
 11
24821.236
 21
30420.807
  0
LINE
  8
0-0
  6
CONTINUOUS
 62
    7
 10
24821.236
 20
30420.807
 11
24821.572
 21
30463.116
  0
LINE
  8
0-0
  6
CONTINUOUS
 62
    7
 10
24825.499
 20
30209.485
 11
24874.124
 21
30204.467
  0
LINE
  8
0-0
  6
CONTINUOUS
 62
    7
 10
24874.124
 20
30204.467
 11
24924.311
 21
30231
  0
LINE
  8
0-0
  6
CONTINUOUS
 62
    7
 10
24924.311
 20
30231
 11
24961.213
 21
30281.281
  0
LINE
  8
0-0
  6
CONTINUOUS
 62
    7
 10
24961.213
 20
30281.281
 11
24989.72
 21
30365.066
  0
LINE
  8
0-0
  6
CONTINUOUS
 62
    7
 10
24989.72
 20
30365.066
 11
24998.374
 21
30454.409
  0
LINE
  8
0-0
  6
CONTINUOUS
 62
    7
 10
24998.374
 20
30454.409
 11
24988.159
 21
30542.883
  0
LINE
  8
0-0
  6
CONTINUOUS
 62
    7
 10
24909.77
 20
30209.485
 11
24980.929
 21
30214.406
  0
LINE
  8
0-0
  6
CONTINUOUS
 62
    7
 10
24980.929
 20
30214.406
 11
25053.821
 21
30299.423
  0
LINE
  8
0-0
  6
CONTINUOUS
 62
    7
 10
24867.633
 20
30202.528
 11
24910.593
 21
30210.311
  0
LINE
  8
0-0
  6
CONTINUOUS
 62
    7
 10
24910.593
 20
30210.311
 11
24955.719
 21
30246.916
  0
LINE
  8
0-0
  6
CONTINUOUS
 62
    7
 10
24955.719
 20
30246.916
 11
24986.963
 21
30300.333
  0
LINE
  8
0-0
  6
CONTINUOUS
 62
    7
 10
24986.963
 20
30300.333
 11
25009.258
 21
30379.533
  0
LINE
  8
0-0
  6
CONTINUOUS
 62
    7
 10
25009.258
 20
30379.533
 11
25015.022
 21
30462.311
  0
LINE
  8
0-0
  6
CONTINUOUS
 62
    7
 10
25015.022
 20
30462.311
 11
25005.017
 21
30542.883
  0
LINE
  8
0-0
  6
CONTINUOUS
 62
    7
 10
24774.214
 20
30406.228
 11
24851.035
 21
30542.883
  0
LINE
  8
0-0
  6
CONTINUOUS
 62
    7
 10
24791.778
 20
30410.119
 11
24866.408
 21
30542.883
  0
LINE
  8
0-0
  6
CONTINUOUS
 62
    7
 10
25343.706
 20
30812.541
 11
25343.706
 21
30829.402
  0
LINE
  8
0-0
  6
CONTINUOUS
 62
    7
 10
25057.191
 20
30749.326
 11
24998.199
 21
30812.541
  0
LINE
  8
0-0
  6
CONTINUOUS
 62
    7
 10
25192.02
 20
30749.326
 11
25133.032
 21
30812.541
  0
LINE
  8
0-0
  6
CONTINUOUS
 62
    7
 10
25139.538
 20
30749.326
 11
25057.191
 21
30749.326
  0
LINE
  8
0-0
  6
CONTINUOUS
 62
    7
 10
24985.563
 20
30749.326
 11
24977.132
 21
30749.326
  0
LINE
  8
0-0
  6
CONTINUOUS
 62
    7
 10
24985.563
 20
30721.813
 11
24976.125
 21
30721.813
  0
LINE
  8
0-0
  6
CONTINUOUS
 62
    7
 10
24859.154
 20
30829.402
 11
25343.706
 21
30829.402
  0
LINE
  8
0-0
  6
CONTINUOUS
 62
    7
 10
25343.706
 20
30812.541
 11
24859.154
 21
30812.541
  0
LINE
  8
0-0
  6
CONTINUOUS
 62
    7
 10
24806.539
 20
30957.12
 11
24798.112
 21
30957.12
  0
LINE
  8
0-0
  6
CONTINUOUS
 62
    7
 10
24806.539
 20
30984.633
 11
24798.112
 21
30984.633
  0
LINE
  8
0-0
  6
CONTINUOUS
 62
    7
 10
24889.484
 20
30829.402
 11
24889.484
 21
30869.961
  0
LINE
  8
0-0
  6
CONTINUOUS
 62
    7
 10
24872.893
 20
30829.402
 11
24872.893
 21
30869.485
  0
LINE
  8
0-0
  6
CONTINUOUS
 62
    7
 10
24910.474
 20
30948.231
 11
24878.163
 21
30889.901
  0
LINE
  8
0-0
  6
CONTINUOUS
 62
    7
 10
24894.341
 20
30889.593
 11
24925.385
 21
30948.504
  0
LINE
  8
0-0
  6
CONTINUOUS
 62
    7
 10
24930.236
 20
30829.402
 11
24930.236
 21
30967.345
  0
LINE
  8
0-0
  6
CONTINUOUS
 62
    7
 10
25055.532
 20
30829.402
 11
25055.532
 21
30869.485
  0
LINE
  8
0-0
  6
CONTINUOUS
 62
    7
 10
25006.92
 20
30829.402
 11
25006.92
 21
30968.15
  0
LINE
  8
0-0
  6
CONTINUOUS
 62
    7
 10
24985.563
 20
30812.541
 11
25038.815
 21
30755.471
  0
LINE
  8
0-0
  6
CONTINUOUS
 62
    7
 10
25120.392
 20
30812.541
 11
25173.644
 21
30755.471
  0
LINE
  8
0-0
  6
CONTINUOUS
 62
    7
 10
25444.831
 20
30686.132
 11
25479.333
 21
30433.328
  0
LINE
  8
0-0
  6
CONTINUOUS
 62
    7
 10
24806.539
 20
31083.501
 11
24798.112
 21
31083.501
  0
LINE
  8
0-0
  6
CONTINUOUS
 62
    7
 10
24806.539
 20
31055.988
 11
24797.1
 21
31055.988
  0
LINE
  8
0-0
  6
CONTINUOUS
 62
    7
 10
24859.154
 20
31239.474
 11
24859.154
 21
31433.865
  0
LINE
  8
0-0
  6
CONTINUOUS
 62
    7
 10
24800.694
 20
31119.231
 11
24814.923
 21
31119.231
  0
LINE
  8
0-0
  6
CONTINUOUS
 62
    7
 10
24878.52
 20
31076.733
 11
24849.75
 21
31108.662
  0
LINE
  8
0-0
  6
CONTINUOUS
 62
    7
 10
24849.75
 20
31108.662
 11
24814.923
 21
31119.231
  0
LINE
  8
0-0
  6
CONTINUOUS
 62
    7
 10
24859.154
 20
31265.517
 11
24854.874
 21
31264.446
  0
LINE
  8
0-0
  6
CONTINUOUS
 62
    7
 10
24854.874
 20
31264.446
 11
24850.968
 21
31261.192
  0
LINE
  8
0-0
  6
CONTINUOUS
 62
    7
 10
24850.968
 20
31261.192
 11
24848.494
 21
31256.538
  0
LINE
  8
0-0
  6
CONTINUOUS
 62
    7
 10
24848.494
 20
31256.538
 11
24847.574
 21
31250.742
  0
LINE
  8
0-0
  6
CONTINUOUS
 62
    7
 10
24847.574
 20
31250.742
 11
24848.494
 21
31244.94
  0
LINE
  8
0-0
  6
CONTINUOUS
 62
    7
 10
24848.494
 20
31244.94
 11
24850.968
 21
31240.3
  0
LINE
  8
0-0
  6
CONTINUOUS
 62
    7
 10
24850.968
 20
31240.3
 11
24854.874
 21
31237.031
  0
LINE
  8
0-0
  6
CONTINUOUS
 62
    7
 10
24854.874
 20
31237.031
 11
24859.154
 21
31235.975
  0
LINE
  8
0-0
  6
CONTINUOUS
 62
    7
 10
24859.154
 20
31235.975
 11
24863.434
 21
31237.031
  0
LINE
  8
0-0
  6
CONTINUOUS
 62
    7
 10
24863.434
 20
31237.031
 11
24867.339
 21
31240.3
  0
LINE
  8
0-0
  6
CONTINUOUS
 62
    7
 10
24867.339
 20
31240.3
 11
24869.813
 21
31244.94
  0
LINE
  8
0-0
  6
CONTINUOUS
 62
    7
 10
24869.813
 20
31244.94
 11
24870.733
 21
31250.742
  0
LINE
  8
0-0
  6
CONTINUOUS
 62
    7
 10
24870.733
 20
31250.742
 11
24869.813
 21
31256.538
  0
LINE
  8
0-0
  6
CONTINUOUS
 62
    7
 10
24869.813
 20
31256.538
 11
24867.339
 21
31261.192
  0
LINE
  8
0-0
  6
CONTINUOUS
 62
    7
 10
24867.339
 20
31261.192
 11
24863.434
 21
31264.446
  0
LINE
  8
0-0
  6
CONTINUOUS
 62
    7
 10
24863.434
 20
31264.446
 11
24859.154
 21
31265.517
  0
LINE
  8
0-0
  6
CONTINUOUS
 62
    7
 10
24890.649
 20
31250.609
 11
24888.217
 21
31264.985
  0
LINE
  8
0-0
  6
CONTINUOUS
 62
    7
 10
24888.217
 20
31264.985
 11
24881.463
 21
31276.709
  0
LINE
  8
0-0
  6
CONTINUOUS
 62
    7
 10
24881.463
 20
31276.709
 11
24870.982
 21
31284.821
  0
LINE
  8
0-0
  6
CONTINUOUS
 62
    7
 10
24870.982
 20
31284.821
 11
24859.154
 21
31287.529
  0
LINE
  8
0-0
  6
CONTINUOUS
 62
    7
 10
24859.154
 20
31287.529
 11
24847.325
 21
31284.821
  0
LINE
  8
0-0
  6
CONTINUOUS
 62
    7
 10
24847.325
 20
31284.821
 11
24836.844
 21
31276.709
  0
LINE
  8
0-0
  6
CONTINUOUS
 62
    7
 10
24836.844
 20
31276.709
 11
24830.09
 21
31264.985
  0
LINE
  8
0-0
  6
CONTINUOUS
 62
    7
 10
24830.09
 20
31264.985
 11
24827.662
 21
31250.609
  0
LINE
  8
0-0
  6
CONTINUOUS
 62
    7
 10
24845.39
 20
31287.529
 11
24833.509
 21
31284.87
  0
LINE
  8
0-0
  6
CONTINUOUS
 62
    7
 10
24833.509
 20
31284.87
 11
24822.965
 21
31276.779
  0
LINE
  8
0-0
  6
CONTINUOUS
 62
    7
 10
24822.965
 20
31276.779
 11
24816.166
 21
31265.034
  0
LINE
  8
0-0
  6
CONTINUOUS
 62
    7
 10
24816.166
 20
31265.034
 11
24813.716
 21
31250.609
  0
LINE
  8
0-0
  6
CONTINUOUS
 62
    7
 10
24859.154
 20
31287.529
 11
24845.086
 21
31287.529
  0
LINE
  8
0-0
  6
CONTINUOUS
 62
    7
 10
24813.716
 20
31119.231
 11
24813.716
 21
31250.609
  0
LINE
  8
0-0
  6
CONTINUOUS
 62
    7
 10
24827.662
 20
31117.922
 11
24827.662
 21
31250.609
  0
LINE
  8
0-0
  6
CONTINUOUS
 62
    7
 10
24966.371
 20
31029.294
 11
24958.162
 21
31087.26
  0
LINE
  8
0-0
  6
CONTINUOUS
 62
    7
 10
24958.162
 20
31087.26
 11
24936.559
 21
31132.466
  0
LINE
  8
0-0
  6
CONTINUOUS
 62
    7
 10
24936.559
 20
31132.466
 11
24901.491
 21
31164.83
  0
LINE
  8
0-0
  6
CONTINUOUS
 62
    7
 10
24901.491
 20
31164.83
 11
24864.791
 21
31174.53
  0
LINE
  8
0-0
  6
CONTINUOUS
 62
    7
 10
24864.791
 20
31174.53
 11
24841.53
 21
31174.53
  0
LINE
  8
0-0
  6
CONTINUOUS
 62
    7
 10
24903.517
 20
31029.294
 11
24966.371
 21
31029.294
  0
LINE
  8
0-0
  6
CONTINUOUS
 62
    7
 10
24890.649
 20
31170.002
 11
24890.649
 21
31250.609
  0
LINE
  8
0-0
  6
CONTINUOUS
 62
    7
 10
24834.02
 20
31116.249
 11
24838.272
 21
31174.46
  0
LINE
  8
0-0
  6
CONTINUOUS
 62
    7
 10
24942.162
 20
31029.294
 11
24933.704
 21
31088.113
  0
LINE
  8
0-0
  6
CONTINUOUS
 62
    7
 10
24933.704
 20
31088.113
 11
24911.527
 21
31133.635
  0
LINE
  8
0-0
  6
CONTINUOUS
 62
    7
 10
24911.527
 20
31133.635
 11
24875.664
 21
31165.662
  0
LINE
  8
0-0
  6
CONTINUOUS
 62
    7
 10
24875.664
 20
31165.662
 11
24838.272
 21
31174.46
  0
LINE
  8
0-0
  6
CONTINUOUS
 62
    7
 10
27585.367
 20
28618.741
 11
28531.084
 21
30455.396
  0
LINE
  8
0-0
  6
CONTINUOUS
 62
    7
 10
29942.064
 20
28778.697
 11
29466.201
 21
30434.924
  0
LINE
  8
0-0
  6
CONTINUOUS
 62
    7
 10
30017.422
 20
28787.228
 11
29541.563
 21
30443.455
  0
LINE
  8
0-0
  6
CONTINUOUS
 62
    7
 10
29902.145
 20
28637.25
 11
29391.168
 21
30415.683
  0
LINE
  8
0-0
  6
CONTINUOUS
 62
    7
 10
27792.083
 20
28703.345
 11
28670.28
 21
30434.301
  0
LINE
  8
0-0
  6
CONTINUOUS
 62
    7
 10
28433.189
 20
28778.697
 11
28909.055
 21
30434.924
  0
LINE
  8
0-0
  6
CONTINUOUS
 62
    7
 10
28357.83
 20
28787.228
 11
28833.69
 21
30443.455
  0
LINE
  8
0-0
  6
CONTINUOUS
 62
    7
 10
28473.107
 20
28637.25
 11
28984.084
 21
30415.683
  0
LINE
  8
0-0
  6
CONTINUOUS
 62
    7
 10
30583.17
 20
28703.345
 11
29704.972
 21
30434.301
  0
LINE
  8
0-0
  6
CONTINUOUS
 62
    7
 10
30789.882
 20
28618.741
 11
29844.172
 21
30455.396
  0
LINE
  8
0-0
  6
CONTINUOUS
 62
    7
 10
29918.872
 20
28262.785
 11
29529.713
 21
28359.078
  0
LINE
  8
0-0
  6
CONTINUOUS
 62
    7
 10
29823.665
 20
28685.701
 11
29503.005
 21
28550.312
  0
LINE
  8
0-0
  6
CONTINUOUS
 62
    7
 10
29812.96
 20
28696.409
 11
29495.191
 21
28562.238
  0
LINE
  8
0-0
  6
CONTINUOUS
 62
    7
 10
29557.436
 20
28467.22
 11
29529.713
 21
28359.078
  0
LINE
  8
0-0
  6
CONTINUOUS
 62
    7
 10
29565.079
 20
28478.435
 11
29514.749
 21
28555.271
  0
LINE
  8
0-0
  6
CONTINUOUS
 62
    7
 10
29557.436
 20
28467.22
 11
29495.191
 21
28562.238
  0
LINE
  8
0-0
  6
CONTINUOUS
 62
    7
 10
29556.786
 20
28313.175
 11
29364.593
 21
28224.473
  0
LINE
  8
0-0
  6
CONTINUOUS
 62
    7
 10
29545.542
 20
28332.335
 11
29364.593
 21
28248.819
  0
LINE
  8
0-0
  6
CONTINUOUS
 62
    7
 10
29594.605
 20
28247.65
 11
29522.389
 21
28214.951
  0
LINE
  8
0-0
  6
CONTINUOUS
 62
    7
 10
29570.605
 20
28173.646
 11
29364.593
 21
28173.646
  0
LINE
  8
0-0
  6
CONTINUOUS
 62
    7
 10
29558.987
 20
28190.503
 11
29364.593
 21
28190.503
  0
LINE
  8
0-0
  6
CONTINUOUS
 62
    7
 10
28356.623
 20
27148.011
 11
28295.189
 21
27148.011
  0
LINE
  8
0-0
  6
CONTINUOUS
 62
    7
 10
28318.72
 20
27359.986
 11
28356.532
 21
27352.504
  0
LINE
  8
0-0
  6
CONTINUOUS
 62
    7
 10
28215.904
 20
27367.549
 11
28318.72
 21
27359.986
  0
LINE
  8
0-0
  6
CONTINUOUS
 62
    7
 10
28176.542
 20
28336.908
 11
28371.314
 21
28331.127
  0
LINE
  8
0-0
  6
CONTINUOUS
 62
    7
 10
28285.695
 20
28414.989
 11
28349.169
 21
28416.197
  0
LINE
  8
0-0
  6
CONTINUOUS
 62
    7
 10
28357.83
 20
28787.228
 11
28255.123
 21
28482.047
  0
LINE
  8
0-0
  6
CONTINUOUS
 62
    7
 10
28330.608
 20
28474.733
 11
28433.189
 21
28778.697
  0
LINE
  8
0-0
  6
CONTINUOUS
 62
    7
 10
27949.483
 20
28476.346
 11
28262.423
 21
28670.695
  0
LINE
  8
0-0
  6
CONTINUOUS
 62
    7
 10
27940.672
 20
28482.442
 11
28317.876
 21
28716.71
  0
LINE
  8
0-0
  6
CONTINUOUS
 62
    7
 10
27846.031
 20
28495.734
 11
27872.218
 21
28427.094
  0
LINE
  8
0-0
  6
CONTINUOUS
 62
    7
 10
27874.954
 20
28601.076
 11
27872.218
 21
28427.094
  0
LINE
  8
0-0
  6
CONTINUOUS
 62
    7
 10
27450.947
 20
28408.2
 11
27611.743
 21
28341.727
  0
LINE
  8
0-0
  6
CONTINUOUS
 62
    7
 10
27450.947
 20
28408.2
 11
27454.807
 21
28417.544
  0
LINE
  8
0-0
  6
CONTINUOUS
 62
    7
 10
27450.947
 20
28408.2
 11
27501.113
 21
28359.337
  0
LINE
  8
0-0
  6
CONTINUOUS
 62
    7
 10
27501.113
 20
28359.337
 11
27661.915
 21
28292.864
  0
LINE
  8
0-0
  6
CONTINUOUS
 62
    7
 10
27454.807
 20
28417.544
 11
27610.665
 21
28353.122
  0
LINE
  8
0-0
  6
CONTINUOUS
 62
    7
 10
27611.743
 20
28341.727
 11
27661.915
 21
28292.864
  0
LINE
  8
0-0
  6
CONTINUOUS
 62
    7
 10
28189.322
 20
27667.236
 11
28307.742
 21
27662.277
  0
LINE
  8
0-0
  6
CONTINUOUS
 62
    7
 10
27913.512
 20
28388.159
 11
27940.672
 21
28482.442
  0
LINE
  8
0-0
  6
CONTINUOUS
 62
    7
 10
27913.512
 20
28388.159
 11
28174.239
 21
28489.182
  0
LINE
  8
0-0
  6
CONTINUOUS
 62
    7
 10
27920.452
 20
28334.126
 11
28155.923
 21
28280.115
  0
LINE
  8
0-0
  6
CONTINUOUS
 62
    7
 10
27949.483
 20
28476.346
 11
27966.785
 21
28408.806
  0
LINE
  8
0-0
  6
CONTINUOUS
 62
    7
 10
27925.088
 20
28391.634
 11
27949.483
 21
28476.346
  0
LINE
  8
0-0
  6
CONTINUOUS
 62
    7
 10
27872.456
 20
28442.3
 11
27933.228
 21
28456.599
  0
LINE
  8
0-0
  6
CONTINUOUS
 62
    7
 10
27838.651
 20
28669.872
 11
27835.998
 21
28501.249
  0
LINE
  8
0-0
  6
CONTINUOUS
 62
    7
 10
27848.761
 20
28669.715
 11
27838.651
 21
28669.872
  0
LINE
  8
0-0
  6
CONTINUOUS
 62
    7
 10
27848.761
 20
28669.715
 11
27846.031
 21
28495.734
  0
LINE
  8
0-0
  6
CONTINUOUS
 62
    7
 10
27883.171
 20
28690.411
 11
27882.408
 21
28670.775
  0
LINE
  8
0-0
  6
CONTINUOUS
 62
    7
 10
27848.761
 20
28669.715
 11
27874.954
 21
28601.076
  0
LINE
  8
0-0
  6
CONTINUOUS
 62
    7
 10
27873.289
 20
28494.834
 11
28013.948
 21
28527.95
  0
LINE
  8
0-0
  6
CONTINUOUS
 62
    7
 10
28810.169
 20
28478.435
 11
28860.503
 21
28555.271
  0
LINE
  8
0-0
  6
CONTINUOUS
 62
    7
 10
28817.816
 20
28467.22
 11
28880.062
 21
28562.238
  0
LINE
  8
0-0
  6
CONTINUOUS
 62
    7
 10
28415.082
 20
28494.043
 11
28817.816
 21
28467.22
  0
LINE
  8
0-0
  6
CONTINUOUS
 62
    7
 10
28419.093
 20
28504.486
 11
28817.816
 21
28477.918
  0
LINE
  8
0-0
  6
CONTINUOUS
 62
    7
 10
28415.082
 20
28494.043
 11
28456.38
 21
28262.785
  0
LINE
  8
0-0
  6
CONTINUOUS
 62
    7
 10
28576.301
 20
28538.9
 11
28823.433
 21
28475.8
  0
LINE
  8
0-0
  6
CONTINUOUS
 62
    7
 10
29266.138
 20
28484.028
 11
29274.575
 21
28571.946
  0
LINE
  8
0-0
  6
CONTINUOUS
 62
    7
 10
29274.575
 20
28571.946
 11
29264.755
 21
28659.094
  0
LINE
  8
0-0
  6
CONTINUOUS
 62
    7
 10
29264.755
 20
28659.094
 11
29235.748
 21
28740.503
  0
LINE
  8
0-0
  6
CONTINUOUS
 62
    7
 10
29235.748
 20
28740.503
 11
29199.063
 21
28789.01
  0
LINE
  8
0-0
  6
CONTINUOUS
 62
    7
 10
29199.063
 20
28789.01
 11
29149.653
 21
28814.357
  0
LINE
  8
0-0
  6
CONTINUOUS
 62
    7
 10
29149.653
 20
28814.357
 11
29101.71
 21
28809.163
  0
LINE
  8
0-0
  6
CONTINUOUS
 62
    7
 10
29282.988
 20
28484.028
 11
29291.362
 21
28563.998
  0
LINE
  8
0-0
  6
CONTINUOUS
 62
    7
 10
29291.362
 20
28563.998
 11
29284.485
 21
28644.732
  0
LINE
  8
0-0
  6
CONTINUOUS
 62
    7
 10
29284.485
 20
28644.732
 11
29261.669
 21
28721.767
  0
LINE
  8
0-0
  6
CONTINUOUS
 62
    7
 10
29261.669
 20
28721.767
 11
29230.576
 21
28773.412
  0
LINE
  8
0-0
  6
CONTINUOUS
 62
    7
 10
29230.576
 20
28773.412
 11
29186.146
 21
28808.649
  0
LINE
  8
0-0
  6
CONTINUOUS
 62
    7
 10
29186.146
 20
28808.649
 11
29143.844
 21
28816.12
  0
LINE
  8
0-0
  6
CONTINUOUS
 62
    7
 10
29198.72
 20
28484.028
 11
29207.153
 21
28575.627
  0
LINE
  8
0-0
  6
CONTINUOUS
 62
    7
 10
29207.153
 20
28575.627
 11
29195.853
 21
28665.568
  0
LINE
  8
0-0
  6
CONTINUOUS
 62
    7
 10
29195.853
 20
28665.568
 11
29163.802
 21
28748.569
  0
LINE
  8
0-0
  6
CONTINUOUS
 62
    7
 10
29163.802
 20
28748.569
 11
29124.583
 21
28795.067
  0
LINE
  8
0-0
  6
CONTINUOUS
 62
    7
 10
29124.583
 20
28795.067
 11
29073.49
 21
28815.259
  0
LINE
  8
0-0
  6
CONTINUOUS
 62
    7
 10
29073.49
 20
28815.259
 11
29023.027
 21
28803.214
  0
LINE
  8
0-0
  6
CONTINUOUS
 62
    7
 10
29023.027
 20
28803.214
 11
28981.918
 21
28763.495
  0
LINE
  8
0-0
  6
CONTINUOUS
 62
    7
 10
28981.918
 20
28763.495
 11
28945.537
 21
28685.659
  0
LINE
  8
0-0
  6
CONTINUOUS
 62
    7
 10
28945.537
 20
28685.659
 11
28929.853
 21
28598.937
  0
LINE
  8
0-0
  6
CONTINUOUS
 62
    7
 10
28929.853
 20
28598.937
 11
28933.576
 21
28505.305
  0
LINE
  8
0-0
  6
CONTINUOUS
 62
    7
 10
29169.698
 20
28484.028
 11
29177.499
 21
28558.277
  0
LINE
  8
0-0
  6
CONTINUOUS
 62
    7
 10
29177.499
 20
28558.277
 11
29170.398
 21
28635.003
  0
LINE
  8
0-0
  6
CONTINUOUS
 62
    7
 10
29170.398
 20
28635.003
 11
29147.599
 21
28707.671
  0
LINE
  8
0-0
  6
CONTINUOUS
 62
    7
 10
29147.599
 20
28707.671
 11
29118.444
 21
28751.677
  0
LINE
  8
0-0
  6
CONTINUOUS
 62
    7
 10
29118.444
 20
28751.677
 11
29078.022
 21
28776.439
  0
LINE
  8
0-0
  6
CONTINUOUS
 62
    7
 10
29078.022
 20
28776.439
 11
29040.552
 21
28774.056
  0
LINE
  8
0-0
  6
CONTINUOUS
 62
    7
 10
29040.552
 20
28774.056
 11
29008.189
 21
28748.818
  0
LINE
  8
0-0
  6
CONTINUOUS
 62
    7
 10
29008.189
 20
28748.818
 11
28976.77
 21
28690.628
  0
LINE
  8
0-0
  6
CONTINUOUS
 62
    7
 10
28976.77
 20
28690.628
 11
28961.369
 21
28623.71
  0
LINE
  8
0-0
  6
CONTINUOUS
 62
    7
 10
28961.369
 20
28623.71
 11
28959.906
 21
28544.303
  0
LINE
  8
0-0
  6
CONTINUOUS
 62
    7
 10
29050.425
 20
28612.418
 11
29122.605
 21
28484.028
  0
LINE
  8
0-0
  6
CONTINUOUS
 62
    7
 10
29067.989
 20
28608.53
 11
29137.979
 21
28484.028
  0
LINE
  8
0-0
  6
CONTINUOUS
 62
    7
 10
28880.062
 20
28562.238
 11
28905.321
 21
28454.887
  0
LINE
  8
0-0
  6
CONTINUOUS
 62
    7
 10
29019.086
 20
28484.028
 11
29031.94
 21
28510.729
  0
LINE
  8
0-0
  6
CONTINUOUS
 62
    7
 10
29010.66
 20
28484.028
 11
29023.513
 21
28510.729
  0
LINE
  8
0-0
  6
CONTINUOUS
 62
    7
 10
29031.94
 20
28510.729
 11
29140.792
 21
28444.525
  0
LINE
  8
0-0
  6
CONTINUOUS
 62
    7
 10
28894.501
 20
28500.871
 11
29010.66
 21
28454.233
  0
LINE
  8
0-0
  6
CONTINUOUS
 62
    7
 10
29495.191
 20
28562.238
 11
29469.935
 21
28454.887
  0
LINE
  8
0-0
  6
CONTINUOUS
 62
    7
 10
29356.166
 20
28484.028
 11
29343.312
 21
28510.729
  0
LINE
  8
0-0
  6
CONTINUOUS
 62
    7
 10
29364.593
 20
28484.028
 11
29351.742
 21
28510.729
  0
LINE
  8
0-0
  6
CONTINUOUS
 62
    7
 10
29343.312
 20
28510.729
 11
29234.453
 21
28444.525
  0
LINE
  8
0-0
  6
CONTINUOUS
 62
    7
 10
29480.752
 20
28500.871
 11
29364.593
 21
28454.233
  0
LINE
  8
0-0
  6
CONTINUOUS
 62
    7
 10
28905.321
 20
28454.887
 11
28845.542
 21
28359.078
  0
LINE
  8
0-0
  6
CONTINUOUS
 62
    7
 10
28818.47
 20
28313.175
 11
29010.66
 21
28224.473
  0
LINE
  8
0-0
  6
CONTINUOUS
 62
    7
 10
28829.711
 20
28332.335
 11
29010.66
 21
28248.819
  0
LINE
  8
0-0
  6
CONTINUOUS
 62
    7
 10
28852.863
 20
28214.951
 11
29010.66
 21
28214.951
  0
LINE
  8
0-0
  6
CONTINUOUS
 62
    7
 10
28804.64
 20
28173.646
 11
29010.66
 21
28173.646
  0
LINE
  8
0-0
  6
CONTINUOUS
 62
    7
 10
28816.266
 20
28190.503
 11
29010.66
 21
28190.503
  0
LINE
  8
0-0
  6
CONTINUOUS
 62
    7
 10
28456.38
 20
28262.785
 11
28845.542
 21
28359.078
  0
LINE
  8
0-0
  6
CONTINUOUS
 62
    7
 10
28817.816
 20
28467.22
 11
28845.542
 21
28359.078
  0
LINE
  8
0-0
  6
CONTINUOUS
 62
    7
 10
28780.651
 20
28247.65
 11
28852.863
 21
28214.951
  0
LINE
  8
0-0
  6
CONTINUOUS
 62
    7
 10
28816.266
 20
28231.528
 11
28816.266
 21
28173.646
  0
LINE
  8
0-0
  6
CONTINUOUS
 62
    7
 10
28804.64
 20
28173.646
 11
28804.64
 21
28236.795
  0
LINE
  8
0-0
  6
CONTINUOUS
 62
    7
 10
29077.479
 20
28358.157
 11
29111.785
 21
28358.157
  0
LINE
  8
0-0
  6
CONTINUOUS
 62
    7
 10
29111.785
 20
28231.787
 11
29129.118
 21
28236.259
  0
LINE
  8
0-0
  6
CONTINUOUS
 62
    7
 10
29129.118
 20
28236.259
 11
29145.209
 21
28250.285
  0
LINE
  8
0-0
  6
CONTINUOUS
 62
    7
 10
29145.209
 20
28250.285
 11
29155.28
 21
28270.05
  0
LINE
  8
0-0
  6
CONTINUOUS
 62
    7
 10
29155.28
 20
28270.05
 11
29159.056
 21
28294.974
  0
LINE
  8
0-0
  6
CONTINUOUS
 62
    7
 10
29159.056
 20
28294.974
 11
29155.28
 21
28319.894
  0
LINE
  8
0-0
  6
CONTINUOUS
 62
    7
 10
29155.28
 20
28319.894
 11
29145.209
 21
28339.649
  0
LINE
  8
0-0
  6
CONTINUOUS
 62
    7
 10
29145.209
 20
28339.649
 11
29129.118
 21
28353.675
  0
LINE
  8
0-0
  6
CONTINUOUS
 62
    7
 10
29129.118
 20
28353.675
 11
29111.785
 21
28358.157
  0
LINE
  8
0-0
  6
CONTINUOUS
 62
    7
 10
29111.785
 20
28358.157
 11
29094.448
 21
28353.675
  0
LINE
  8
0-0
  6
CONTINUOUS
 62
    7
 10
29094.448
 20
28353.675
 11
29078.361
 21
28339.649
  0
LINE
  8
0-0
  6
CONTINUOUS
 62
    7
 10
29078.361
 20
28339.649
 11
29068.282
 21
28319.894
  0
LINE
  8
0-0
  6
CONTINUOUS
 62
    7
 10
29068.282
 20
28319.894
 11
29064.514
 21
28294.974
  0
LINE
  8
0-0
  6
CONTINUOUS
 62
    7
 10
29064.514
 20
28294.974
 11
29068.282
 21
28270.05
  0
LINE
  8
0-0
  6
CONTINUOUS
 62
    7
 10
29068.282
 20
28270.05
 11
29078.361
 21
28250.285
  0
LINE
  8
0-0
  6
CONTINUOUS
 62
    7
 10
29078.361
 20
28250.285
 11
29094.448
 21
28236.259
  0
LINE
  8
0-0
  6
CONTINUOUS
 62
    7
 10
29094.448
 20
28236.259
 11
29111.785
 21
28231.787
  0
LINE
  8
0-0
  6
CONTINUOUS
 62
    7
 10
29077.479
 20
28231.787
 11
29111.785
 21
28231.787
  0
LINE
  8
0-0
  6
CONTINUOUS
 62
    7
 10
29116.737
 20
28259.293
 11
29123.046
 21
28261.508
  0
LINE
  8
0-0
  6
CONTINUOUS
 62
    7
 10
29123.046
 20
28261.508
 11
29129.804
 21
28269.742
  0
LINE
  8
0-0
  6
CONTINUOUS
 62
    7
 10
29129.804
 20
28269.742
 11
29133.688
 21
28280.563
  0
LINE
  8
0-0
  6
CONTINUOUS
 62
    7
 10
29133.688
 20
28280.563
 11
29135.218
 21
28294.974
  0
LINE
  8
0-0
  6
CONTINUOUS
 62
    7
 10
29135.218
 20
28294.974
 11
29133.688
 21
28309.374
  0
LINE
  8
0-0
  6
CONTINUOUS
 62
    7
 10
29133.688
 20
28309.374
 11
29129.804
 21
28320.202
  0
LINE
  8
0-0
  6
CONTINUOUS
 62
    7
 10
29129.804
 20
28320.202
 11
29123.046
 21
28328.436
  0
LINE
  8
0-0
  6
CONTINUOUS
 62
    7
 10
29123.046
 20
28328.436
 11
29116.737
 21
28330.651
  0
LINE
  8
0-0
  6
CONTINUOUS
 62
    7
 10
29116.737
 20
28330.651
 11
29110.434
 21
28328.436
  0
LINE
  8
0-0
  6
CONTINUOUS
 62
    7
 10
29110.434
 20
28328.436
 11
29103.673
 21
28320.202
  0
LINE
  8
0-0
  6
CONTINUOUS
 62
    7
 10
29103.673
 20
28320.202
 11
29099.792
 21
28309.374
  0
LINE
  8
0-0
  6
CONTINUOUS
 62
    7
 10
29099.792
 20
28309.374
 11
29098.263
 21
28294.974
  0
LINE
  8
0-0
  6
CONTINUOUS
 62
    7
 10
29098.263
 20
28294.974
 11
29099.792
 21
28280.563
  0
LINE
  8
0-0
  6
CONTINUOUS
 62
    7
 10
29099.792
 20
28280.563
 11
29103.673
 21
28269.742
  0
LINE
  8
0-0
  6
CONTINUOUS
 62
    7
 10
29103.673
 20
28269.742
 11
29110.434
 21
28261.508
  0
LINE
  8
0-0
  6
CONTINUOUS
 62
    7
 10
29110.434
 20
28261.508
 11
29116.737
 21
28259.293
  0
LINE
  8
0-0
  6
CONTINUOUS
 62
    7
 10
29108.313
 20
28330.651
 11
29102.004
 21
28328.436
  0
LINE
  8
0-0
  6
CONTINUOUS
 62
    7
 10
29102.004
 20
28328.436
 11
29095.246
 21
28320.202
  0
LINE
  8
0-0
  6
CONTINUOUS
 62
    7
 10
29095.246
 20
28320.202
 11
29091.362
 21
28309.374
  0
LINE
  8
0-0
  6
CONTINUOUS
 62
    7
 10
29091.362
 20
28309.374
 11
29089.836
 21
28294.974
  0
LINE
  8
0-0
  6
CONTINUOUS
 62
    7
 10
29089.836
 20
28294.974
 11
29091.362
 21
28280.563
  0
LINE
  8
0-0
  6
CONTINUOUS
 62
    7
 10
29091.362
 20
28280.563
 11
29095.246
 21
28269.742
  0
LINE
  8
0-0
  6
CONTINUOUS
 62
    7
 10
29095.246
 20
28269.742
 11
29102.004
 21
28261.508
  0
LINE
  8
0-0
  6
CONTINUOUS
 62
    7
 10
29102.004
 20
28261.508
 11
29108.313
 21
28259.293
  0
LINE
  8
0-0
  6
CONTINUOUS
 62
    7
 10
29108.313
 20
28259.293
 11
29117.748
 21
28259.293
  0
LINE
  8
0-0
  6
CONTINUOUS
 62
    7
 10
29108.313
 20
28330.651
 11
29116.737
 21
28330.651
  0
LINE
  8
0-0
  6
CONTINUOUS
 62
    7
 10
29077.479
 20
28358.157
 11
29060.139
 21
28353.675
  0
LINE
  8
0-0
  6
CONTINUOUS
 62
    7
 10
29060.139
 20
28353.675
 11
29044.048
 21
28339.649
  0
LINE
  8
0-0
  6
CONTINUOUS
 62
    7
 10
29044.048
 20
28339.649
 11
29033.98
 21
28319.894
  0
LINE
  8
0-0
  6
CONTINUOUS
 62
    7
 10
29033.98
 20
28319.894
 11
29030.208
 21
28294.974
  0
LINE
  8
0-0
  6
CONTINUOUS
 62
    7
 10
29030.208
 20
28294.974
 11
29033.98
 21
28270.05
  0
LINE
  8
0-0
  6
CONTINUOUS
 62
    7
 10
29033.98
 20
28270.05
 11
29044.048
 21
28250.285
  0
LINE
  8
0-0
  6
CONTINUOUS
 62
    7
 10
29044.048
 20
28250.285
 11
29060.139
 21
28236.259
  0
LINE
  8
0-0
  6
CONTINUOUS
 62
    7
 10
29060.139
 20
28236.259
 11
29077.479
 21
28231.787
  0
LINE
  8
0-0
  6
CONTINUOUS
 62
    7
 10
29019.086
 20
28190.503
 11
29187.623
 21
28190.503
  0
LINE
  8
0-0
  6
CONTINUOUS
 62
    7
 10
29010.66
 20
28173.646
 11
29187.623
 21
28173.646
  0
LINE
  8
0-0
  6
CONTINUOUS
 62
    7
 10
29019.086
 20
28173.646
 11
29019.086
 21
28484.028
  0
LINE
  8
0-0
  6
CONTINUOUS
 62
    7
 10
29010.66
 20
28173.646
 11
29010.66
 21
28484.028
  0
LINE
  8
0-0
  6
CONTINUOUS
 62
    7
 10
29010.66
 20
28484.028
 11
29019.086
 21
28484.028
  0
LINE
  8
0-0
  6
CONTINUOUS
 62
    7
 10
29075.845
 20
28484.028
 11
29187.623
 21
28484.028
  0
LINE
  8
0-0
  6
CONTINUOUS
 62
    7
 10
29019.086
 20
28444.525
 11
29061.035
 21
28444.525
  0
LINE
  8
0-0
  6
CONTINUOUS
 62
    7
 10
29019.086
 20
28428.54
 11
29187.623
 21
28428.54
  0
LINE
  8
0-0
  6
CONTINUOUS
 62
    7
 10
29019.086
 20
28444.525
 11
29187.623
 21
28444.525
  0
LINE
  8
0-0
  6
CONTINUOUS
 62
    7
 10
28899.564
 20
28479.356
 11
29010.66
 21
28434.748
  0
LINE
  8
0-0
  6
CONTINUOUS
 62
    7
 10
29469.935
 20
28454.887
 11
29529.713
 21
28359.078
  0
LINE
  8
0-0
  6
CONTINUOUS
 62
    7
 10
29297.78
 20
28358.157
 11
29263.471
 21
28358.157
  0
LINE
  8
0-0
  6
CONTINUOUS
 62
    7
 10
29263.471
 20
28231.787
 11
29280.811
 21
28236.259
  0
LINE
  8
0-0
  6
CONTINUOUS
 62
    7
 10
29280.811
 20
28236.259
 11
29296.895
 21
28250.285
  0
LINE
  8
0-0
  6
CONTINUOUS
 62
    7
 10
29296.895
 20
28250.285
 11
29306.97
 21
28270.05
  0
LINE
  8
0-0
  6
CONTINUOUS
 62
    7
 10
29306.97
 20
28270.05
 11
29310.739
 21
28294.974
  0
LINE
  8
0-0
  6
CONTINUOUS
 62
    7
 10
29310.739
 20
28294.974
 11
29306.97
 21
28319.894
  0
LINE
  8
0-0
  6
CONTINUOUS
 62
    7
 10
29306.97
 20
28319.894
 11
29296.895
 21
28339.649
  0
LINE
  8
0-0
  6
CONTINUOUS
 62
    7
 10
29296.895
 20
28339.649
 11
29280.811
 21
28353.675
  0
LINE
  8
0-0
  6
CONTINUOUS
 62
    7
 10
29280.811
 20
28353.675
 11
29263.471
 21
28358.157
  0
LINE
  8
0-0
  6
CONTINUOUS
 62
    7
 10
29263.471
 20
28358.157
 11
29246.127
 21
28353.675
  0
LINE
  8
0-0
  6
CONTINUOUS
 62
    7
 10
29246.127
 20
28353.675
 11
29230.044
 21
28339.649
  0
LINE
  8
0-0
  6
CONTINUOUS
 62
    7
 10
29230.044
 20
28339.649
 11
29219.969
 21
28319.894
  0
LINE
  8
0-0
  6
CONTINUOUS
 62
    7
 10
29219.969
 20
28319.894
 11
29216.2
 21
28294.974
  0
LINE
  8
0-0
  6
CONTINUOUS
 62
    7
 10
29216.2
 20
28294.974
 11
29219.969
 21
28270.05
  0
LINE
  8
0-0
  6
CONTINUOUS
 62
    7
 10
29219.969
 20
28270.05
 11
29230.044
 21
28250.285
  0
LINE
  8
0-0
  6
CONTINUOUS
 62
    7
 10
29230.044
 20
28250.285
 11
29246.127
 21
28236.259
  0
LINE
  8
0-0
  6
CONTINUOUS
 62
    7
 10
29246.127
 20
28236.259
 11
29263.471
 21
28231.787
  0
LINE
  8
0-0
  6
CONTINUOUS
 62
    7
 10
29297.78
 20
28231.787
 11
29263.471
 21
28231.787
  0
LINE
  8
0-0
  6
CONTINUOUS
 62
    7
 10
29258.512
 20
28259.293
 11
29264.822
 21
28261.508
  0
LINE
  8
0-0
  6
CONTINUOUS
 62
    7
 10
29264.822
 20
28261.508
 11
29271.579
 21
28269.742
  0
LINE
  8
0-0
  6
CONTINUOUS
 62
    7
 10
29271.579
 20
28269.742
 11
29275.46
 21
28280.563
  0
LINE
  8
0-0
  6
CONTINUOUS
 62
    7
 10
29275.46
 20
28280.563
 11
29276.99
 21
28294.974
  0
LINE
  8
0-0
  6
CONTINUOUS
 62
    7
 10
29276.99
 20
28294.974
 11
29275.46
 21
28309.374
  0
LINE
  8
0-0
  6
CONTINUOUS
 62
    7
 10
29275.46
 20
28309.374
 11
29271.579
 21
28320.202
  0
LINE
  8
0-0
  6
CONTINUOUS
 62
    7
 10
29271.579
 20
28320.202
 11
29264.822
 21
28328.436
  0
LINE
  8
0-0
  6
CONTINUOUS
 62
    7
 10
29264.822
 20
28328.436
 11
29258.512
 21
28330.651
  0
LINE
  8
0-0
  6
CONTINUOUS
 62
    7
 10
29258.512
 20
28330.651
 11
29252.206
 21
28328.436
  0
LINE
  8
0-0
  6
CONTINUOUS
 62
    7
 10
29252.206
 20
28328.436
 11
29245.452
 21
28320.202
  0
LINE
  8
0-0
  6
CONTINUOUS
 62
    7
 10
29245.452
 20
28320.202
 11
29241.561
 21
28309.374
  0
LINE
  8
0-0
  6
CONTINUOUS
 62
    7
 10
29241.561
 20
28309.374
 11
29240.038
 21
28294.974
  0
LINE
  8
0-0
  6
CONTINUOUS
 62
    7
 10
29240.038
 20
28294.974
 11
29241.561
 21
28280.563
  0
LINE
  8
0-0
  6
CONTINUOUS
 62
    7
 10
29241.561
 20
28280.563
 11
29245.452
 21
28269.742
  0
LINE
  8
0-0
  6
CONTINUOUS
 62
    7
 10
29245.452
 20
28269.742
 11
29252.206
 21
28261.508
  0
LINE
  8
0-0
  6
CONTINUOUS
 62
    7
 10
29252.206
 20
28261.508
 11
29258.512
 21
28259.293
  0
LINE
  8
0-0
  6
CONTINUOUS
 62
    7
 10
29266.939
 20
28259.293
 11
29273.249
 21
28261.508
  0
LINE
  8
0-0
  6
CONTINUOUS
 62
    7
 10
29273.249
 20
28261.508
 11
29280.003
 21
28269.742
  0
LINE
  8
0-0
  6
CONTINUOUS
 62
    7
 10
29280.003
 20
28269.742
 11
29283.887
 21
28280.563
  0
LINE
  8
0-0
  6
CONTINUOUS
 62
    7
 10
29283.887
 20
28280.563
 11
29285.416
 21
28294.974
  0
LINE
  8
0-0
  6
CONTINUOUS
 62
    7
 10
29285.416
 20
28294.974
 11
29283.887
 21
28309.374
  0
LINE
  8
0-0
  6
CONTINUOUS
 62
    7
 10
29283.887
 20
28309.374
 11
29280.003
 21
28320.202
  0
LINE
  8
0-0
  6
CONTINUOUS
 62
    7
 10
29280.003
 20
28320.202
 11
29273.249
 21
28328.436
  0
LINE
  8
0-0
  6
CONTINUOUS
 62
    7
 10
29273.249
 20
28328.436
 11
29266.939
 21
28330.651
  0
LINE
  8
0-0
  6
CONTINUOUS
 62
    7
 10
29266.939
 20
28259.293
 11
29257.508
 21
28259.293
  0
LINE
  8
0-0
  6
CONTINUOUS
 62
    7
 10
29266.939
 20
28330.651
 11
29258.512
 21
28330.651
  0
LINE
  8
0-0
  6
CONTINUOUS
 62
    7
 10
29297.78
 20
28231.787
 11
29315.11
 21
28236.259
  0
LINE
  8
0-0
  6
CONTINUOUS
 62
    7
 10
29315.11
 20
28236.259
 11
29331.204
 21
28250.285
  0
LINE
  8
0-0
  6
CONTINUOUS
 62
    7
 10
29331.204
 20
28250.285
 11
29341.275
 21
28270.05
  0
LINE
  8
0-0
  6
CONTINUOUS
 62
    7
 10
29341.275
 20
28270.05
 11
29345.051
 21
28294.974
  0
LINE
  8
0-0
  6
CONTINUOUS
 62
    7
 10
29345.051
 20
28294.974
 11
29341.275
 21
28319.894
  0
LINE
  8
0-0
  6
CONTINUOUS
 62
    7
 10
29341.275
 20
28319.894
 11
29331.204
 21
28339.649
  0
LINE
  8
0-0
  6
CONTINUOUS
 62
    7
 10
29331.204
 20
28339.649
 11
29315.11
 21
28353.675
  0
LINE
  8
0-0
  6
CONTINUOUS
 62
    7
 10
29315.11
 20
28353.675
 11
29297.78
 21
28358.157
  0
LINE
  8
0-0
  6
CONTINUOUS
 62
    7
 10
29356.166
 20
28190.503
 11
29187.623
 21
28190.503
  0
LINE
  8
0-0
  6
CONTINUOUS
 62
    7
 10
29364.593
 20
28173.646
 11
29187.623
 21
28173.646
  0
LINE
  8
0-0
  6
CONTINUOUS
 62
    7
 10
29356.166
 20
28173.646
 11
29356.166
 21
28484.028
  0
LINE
  8
0-0
  6
CONTINUOUS
 62
    7
 10
29364.593
 20
28173.646
 11
29364.593
 21
28484.028
  0
LINE
  8
0-0
  6
CONTINUOUS
 62
    7
 10
29364.593
 20
28484.028
 11
29356.166
 21
28484.028
  0
LINE
  8
0-0
  6
CONTINUOUS
 62
    7
 10
29299.407
 20
28484.028
 11
29187.623
 21
28484.028
  0
LINE
  8
0-0
  6
CONTINUOUS
 62
    7
 10
29356.166
 20
28444.525
 11
29314.221
 21
28444.525
  0
LINE
  8
0-0
  6
CONTINUOUS
 62
    7
 10
29356.166
 20
28428.54
 11
29187.623
 21
28428.54
  0
LINE
  8
0-0
  6
CONTINUOUS
 62
    7
 10
29356.166
 20
28444.525
 11
29187.623
 21
28444.525
  0
LINE
  8
0-0
  6
CONTINUOUS
 62
    7
 10
29475.688
 20
28479.356
 11
29364.593
 21
28434.748
  0
LINE
  8
0-0
  6
CONTINUOUS
 62
    7
 10
29522.389
 20
28214.951
 11
29364.593
 21
28214.951
  0
LINE
  8
0-0
  6
CONTINUOUS
 62
    7
 10
29187.623
 20
28190.503
 11
29187.623
 21
28428.54
  0
LINE
  8
0-0
  6
CONTINUOUS
 62
    7
 10
28551.591
 20
28685.701
 11
28872.247
 21
28550.312
  0
LINE
  8
0-0
  6
CONTINUOUS
 62
    7
 10
28562.299
 20
28696.409
 11
28880.062
 21
28562.238
  0
LINE
  8
0-0
  6
CONTINUOUS
 62
    7
 10
28550.538
 20
28685.886
 11
28576.301
 21
28538.9
  0
LINE
  8
0-0
  6
CONTINUOUS
 62
    7
 10
28557.351
 20
28495.279
 11
28576.301
 21
28538.9
  0
LINE
  8
0-0
  6
CONTINUOUS
 62
    7
 10
28534.3
 20
28692.906
 11
28562.912
 21
28696.15
  0
LINE
  8
0-0
  6
CONTINUOUS
 62
    7
 10
29370.962
 20
28505.305
 11
29372.397
 21
28625.523
  0
LINE
  8
0-0
  6
CONTINUOUS
 62
    7
 10
29372.397
 20
28625.523
 11
29343.942
 21
28725.854
  0
LINE
  8
0-0
  6
CONTINUOUS
 62
    7
 10
29343.942
 20
28725.854
 11
29285.339
 21
28799.848
  0
LINE
  8
0-0
  6
CONTINUOUS
 62
    7
 10
29285.339
 20
28799.848
 11
29228.115
 21
28816.12
  0
LINE
  8
0-0
  6
CONTINUOUS
 62
    7
 10
29438.376
 20
28505.305
 11
29442.502
 21
28591.246
  0
LINE
  8
0-0
  6
CONTINUOUS
 62
    7
 10
29442.502
 20
28591.246
 11
29430.026
 21
28672.753
  0
LINE
  8
0-0
  6
CONTINUOUS
 62
    7
 10
29430.026
 20
28672.753
 11
29399.941
 21
28748.142
  0
LINE
  8
0-0
  6
CONTINUOUS
 62
    7
 10
29399.941
 20
28748.142
 11
29363.875
 21
28792.317
  0
LINE
  8
0-0
  6
CONTINUOUS
 62
    7
 10
29363.875
 20
28792.317
 11
29316.443
 21
28814.784
  0
LINE
  8
0-0
  6
CONTINUOUS
 62
    7
 10
29316.443
 20
28814.784
 11
29270.249
 21
28809.163
  0
LINE
  8
0-0
  6
CONTINUOUS
 62
    7
 10
29354.168
 20
28505.693
 11
29358.213
 21
28591.592
  0
LINE
  8
0-0
  6
CONTINUOUS
 62
    7
 10
29358.213
 20
28591.592
 11
29345.695
 21
28673.001
  0
LINE
  8
0-0
  6
CONTINUOUS
 62
    7
 10
29345.695
 20
28673.001
 11
29315.596
 21
28748.272
  0
LINE
  8
0-0
  6
CONTINUOUS
 62
    7
 10
29315.596
 20
28748.272
 11
29279.534
 21
28792.376
  0
LINE
  8
0-0
  6
CONTINUOUS
 62
    7
 10
29279.534
 20
28792.376
 11
29232.14
 21
28814.784
  0
LINE
  8
0-0
  6
CONTINUOUS
 62
    7
 10
29232.14
 20
28814.784
 11
29185.978
 21
28809.163
  0
LINE
  8
0-0
  6
CONTINUOUS
 62
    7
 10
29069.738
 20
28662.569
 11
29057.784
 21
28662.569
  0
LINE
  8
0-0
  6
CONTINUOUS
 62
    7
 10
29097.783
 20
28555.526
 11
29097.447
 21
28597.839
  0
LINE
  8
0-0
  6
CONTINUOUS
 62
    7
 10
29097.447
 20
28597.839
 11
29091.925
 21
28630.461
  0
LINE
  8
0-0
  6
CONTINUOUS
 62
    7
 10
29091.925
 20
28630.461
 11
29079.418
 21
28657.53
  0
LINE
  8
0-0
  6
CONTINUOUS
 62
    7
 10
29079.418
 20
28657.53
 11
29069.581
 21
28662.559
  0
LINE
  8
0-0
  6
CONTINUOUS
 62
    7
 10
29086.385
 20
28575.795
 11
29083.285
 21
28615.417
  0
LINE
  8
0-0
  6
CONTINUOUS
 62
    7
 10
29083.285
 20
28615.417
 11
29076.534
 21
28641.379
  0
LINE
  8
0-0
  6
CONTINUOUS
 62
    7
 10
29076.534
 20
28641.379
 11
29063.905
 21
28659.986
  0
LINE
  8
0-0
  6
CONTINUOUS
 62
    7
 10
29063.905
 20
28659.986
 11
29054.036
 21
28661.845
  0
LINE
  8
0-0
  6
CONTINUOUS
 62
    7
 10
29054.036
 20
28661.845
 11
29044.608
 21
28653.75
  0
LINE
  8
0-0
  6
CONTINUOUS
 62
    7
 10
29044.608
 20
28653.75
 11
29032.78
 21
28624.582
  0
LINE
  8
0-0
  6
CONTINUOUS
 62
    7
 10
29021.977
 20
28624.582
 11
29013.547
 21
28621.383
  0
LINE
  8
0-0
  6
CONTINUOUS
 62
    7
 10
29013.547
 20
28621.383
 11
29003.871
 21
28608.26
  0
LINE
  8
0-0
  6
CONTINUOUS
 62
    7
 10
29003.871
 20
28608.26
 11
28998.39
 21
28591.375
  0
LINE
  8
0-0
  6
CONTINUOUS
 62
    7
 10
28998.39
 20
28591.375
 11
28996.06
 21
28568.53
  0
LINE
  8
0-0
  6
CONTINUOUS
 62
    7
 10
28996.06
 20
28568.53
 11
28997.96
 21
28545.658
  0
LINE
  8
0-0
  6
CONTINUOUS
 62
    7
 10
28997.96
 20
28545.658
 11
29003.122
 21
28528.664
  0
LINE
  8
0-0
  6
CONTINUOUS
 62
    7
 10
29003.122
 20
28528.664
 11
29012.549
 21
28515.362
  0
LINE
  8
0-0
  6
CONTINUOUS
 62
    7
 10
29012.549
 20
28515.362
 11
29020.92
 21
28512.017
  0
LINE
  8
0-0
  6
CONTINUOUS
 62
    7
 10
29020.92
 20
28512.017
 11
29029.35
 21
28515.205
  0
LINE
  8
0-0
  6
CONTINUOUS
 62
    7
 10
29029.35
 20
28515.205
 11
29039.027
 21
28528.328
  0
LINE
  8
0-0
  6
CONTINUOUS
 62
    7
 10
29039.027
 20
28528.328
 11
29044.503
 21
28545.224
  0
LINE
  8
0-0
  6
CONTINUOUS
 62
    7
 10
29044.503
 20
28545.224
 11
29046.838
 21
28568.058
  0
LINE
  8
0-0
  6
CONTINUOUS
 62
    7
 10
29046.838
 20
28568.058
 11
29044.934
 21
28590.941
  0
LINE
  8
0-0
  6
CONTINUOUS
 62
    7
 10
29044.934
 20
28590.941
 11
29039.776
 21
28607.924
  0
LINE
  8
0-0
  6
CONTINUOUS
 62
    7
 10
29039.776
 20
28607.924
 11
29030.348
 21
28621.226
  0
LINE
  8
0-0
  6
CONTINUOUS
 62
    7
 10
29030.348
 20
28621.226
 11
29021.977
 21
28624.582
  0
LINE
  8
0-0
  6
CONTINUOUS
 62
    7
 10
29021.869
 20
28624.582
 11
29034.75
 21
28624.582
  0
LINE
  8
0-0
  6
CONTINUOUS
 62
    7
 10
29027.482
 20
28513.857
 11
29037.259
 21
28513.025
  0
LINE
  8
0-0
  6
CONTINUOUS
 62
    7
 10
29037.259
 20
28513.025
 11
29048.171
 21
28521.626
  0
LINE
  8
0-0
  6
CONTINUOUS
 62
    7
 10
29048.171
 20
28521.626
 11
29055.222
 21
28536.73
  0
LINE
  8
0-0
  6
CONTINUOUS
 62
    7
 10
29055.222
 20
28536.73
 11
29059.457
 21
28561.097
  0
LINE
  8
0-0
  6
CONTINUOUS
 62
    7
 10
29059.457
 20
28561.097
 11
29058.662
 21
28585.972
  0
LINE
  8
0-0
  6
CONTINUOUS
 62
    7
 10
29058.662
 20
28585.972
 11
29053.676
 21
28605.461
  0
LINE
  8
0-0
  6
CONTINUOUS
 62
    7
 10
29053.676
 20
28605.461
 11
29043.688
 21
28620.851
  0
LINE
  8
0-0
  6
CONTINUOUS
 62
    7
 10
29043.688
 20
28620.851
 11
29034.75
 21
28624.582
  0
LINE
  8
0-0
  6
CONTINUOUS
 62
    7
 10
29067.989
 20
28608.53
 11
29058.638
 21
28621.376
  0
LINE
  8
0-0
  6
CONTINUOUS
 62
    7
 10
29058.638
 20
28621.376
 11
29050.351
 21
28624.582
  0
LINE
  8
0-0
  6
CONTINUOUS
 62
    7
 10
29032.78
 20
28624.582
 11
29050.351
 21
28624.582
  0
LINE
  8
0-0
  6
CONTINUOUS
 62
    7
 10
29007.584
 20
28614.93
 11
28933.576
 21
28505.305
  0
LINE
  8
0-0
  6
CONTINUOUS
 62
    7
 10
29023.513
 20
28510.729
 11
29030.981
 21
28510.729
  0
LINE
  8
0-0
  6
CONTINUOUS
 62
    7
 10
28893.458
 20
28505.305
 11
29020.899
 21
28505.305
  0
LINE
  8
0-0
  6
CONTINUOUS
 62
    7
 10
28902.364
 20
28497.714
 11
29017.246
 21
28497.714
  0
LINE
  8
0-0
  6
CONTINUOUS
 62
    7
 10
29351.742
 20
28510.729
 11
29344.275
 21
28510.729
  0
LINE
  8
0-0
  6
CONTINUOUS
 62
    7
 10
29481.795
 20
28505.305
 11
29354.35
 21
28505.305
  0
LINE
  8
0-0
  6
CONTINUOUS
 62
    7
 10
29472.888
 20
28497.714
 11
29358.007
 21
28497.714
  0
LINE
  8
0-0
  6
CONTINUOUS
 62
    7
 10
30018.629
 20
27148.011
 11
30080.067
 21
27148.011
  0
LINE
  8
0-0
  6
CONTINUOUS
 62
    7
 10
30056.529
 20
27359.986
 11
30018.72
 21
27352.504
  0
LINE
  8
0-0
  6
CONTINUOUS
 62
    7
 10
30159.355
 20
27367.549
 11
30056.529
 21
27359.986
  0
LINE
  8
0-0
  6
CONTINUOUS
 62
    7
 10
30874.14
 20
28359.337
 11
30713.344
 21
28292.864
  0
LINE
  8
0-0
  6
CONTINUOUS
 62
    7
 10
30763.503
 20
28341.727
 11
30713.344
 21
28292.864
  0
LINE
  8
0-0
  6
CONTINUOUS
 62
    7
 10
30017.422
 20
28787.228
 11
30120.133
 21
28482.047
  0
LINE
  8
0-0
  6
CONTINUOUS
 62
    7
 10
29960.17
 20
28494.043
 11
29557.436
 21
28467.22
  0
LINE
  8
0-0
  6
CONTINUOUS
 62
    7
 10
29956.163
 20
28504.486
 11
29557.436
 21
28477.918
  0
LINE
  8
0-0
  6
CONTINUOUS
 62
    7
 10
29798.955
 20
28538.9
 11
29551.82
 21
28475.8
  0
LINE
  8
0-0
  6
CONTINUOUS
 62
    7
 10
29960.17
 20
28494.043
 11
29918.872
 21
28262.785
  0
LINE
  8
0-0
  6
CONTINUOUS
 62
    7
 10
30044.652
 20
28474.733
 11
29942.064
 21
28778.697
  0
LINE
  8
0-0
  6
CONTINUOUS
 62
    7
 10
30425.769
 20
28476.346
 11
30112.826
 21
28670.695
  0
LINE
  8
0-0
  6
CONTINUOUS
 62
    7
 10
30434.588
 20
28482.442
 11
30057.379
 21
28716.71
  0
LINE
  8
0-0
  6
CONTINUOUS
 62
    7
 10
30529.228
 20
28495.734
 11
30503.027
 21
28427.094
  0
LINE
  8
0-0
  6
CONTINUOUS
 62
    7
 10
30500.298
 20
28601.076
 11
30503.027
 21
28427.094
  0
LINE
  8
0-0
  6
CONTINUOUS
 62
    7
 10
30198.707
 20
28336.908
 11
30003.938
 21
28331.127
  0
LINE
  8
0-0
  6
CONTINUOUS
 62
    7
 10
30089.557
 20
28414.989
 11
30026.08
 21
28416.197
  0
LINE
  8
0-0
  6
CONTINUOUS
 62
    7
 10
29558.987
 20
28231.528
 11
29558.987
 21
28173.646
  0
LINE
  8
0-0
  6
CONTINUOUS
 62
    7
 10
29570.605
 20
28173.646
 11
29570.605
 21
28236.795
  0
LINE
  8
0-0
  6
CONTINUOUS
 62
    7
 10
30185.93
 20
27667.236
 11
30067.507
 21
27662.277
  0
LINE
  8
0-0
  6
CONTINUOUS
 62
    7
 10
30461.737
 20
28388.159
 11
30434.588
 21
28482.442
  0
LINE
  8
0-0
  6
CONTINUOUS
 62
    7
 10
30461.737
 20
28388.159
 11
30201.013
 21
28489.182
  0
LINE
  8
0-0
  6
CONTINUOUS
 62
    7
 10
30454.797
 20
28334.126
 11
30219.326
 21
28280.115
  0
LINE
  8
0-0
  6
CONTINUOUS
 62
    7
 10
30425.769
 20
28476.346
 11
30408.467
 21
28408.806
  0
LINE
  8
0-0
  6
CONTINUOUS
 62
    7
 10
30450.167
 20
28391.634
 11
30425.769
 21
28476.346
  0
LINE
  8
0-0
  6
CONTINUOUS
 62
    7
 10
30502.793
 20
28442.3
 11
30442.031
 21
28456.599
  0
LINE
  8
0-0
  6
CONTINUOUS
 62
    7
 10
29824.711
 20
28685.886
 11
29798.955
 21
28538.9
  0
LINE
  8
0-0
  6
CONTINUOUS
 62
    7
 10
29817.898
 20
28495.279
 11
29798.955
 21
28538.9
  0
LINE
  8
0-0
  6
CONTINUOUS
 62
    7
 10
29840.959
 20
28692.906
 11
29812.344
 21
28696.15
  0
LINE
  8
0-0
  6
CONTINUOUS
 62
    7
 10
30536.602
 20
28669.872
 11
30539.254
 21
28501.249
  0
LINE
  8
0-0
  6
CONTINUOUS
 62
    7
 10
30526.485
 20
28669.715
 11
30536.602
 21
28669.872
  0
LINE
  8
0-0
  6
CONTINUOUS
 62
    7
 10
30526.485
 20
28669.715
 11
30529.228
 21
28495.734
  0
LINE
  8
0-0
  6
CONTINUOUS
 62
    7
 10
30492.081
 20
28690.411
 11
30492.844
 21
28670.775
  0
LINE
  8
0-0
  6
CONTINUOUS
 62
    7
 10
30526.485
 20
28669.715
 11
30500.298
 21
28601.076
  0
LINE
  8
0-0
  6
CONTINUOUS
 62
    7
 10
30501.971
 20
28494.834
 11
30361.304
 21
28527.95
  0
LINE
  8
0-0
  6
CONTINUOUS
 62
    7
 10
30924.309
 20
28408.2
 11
30763.503
 21
28341.727
  0
LINE
  8
0-0
  6
CONTINUOUS
 62
    7
 10
30924.309
 20
28408.2
 11
30874.14
 21
28359.337
  0
LINE
  8
0-0
  6
CONTINUOUS
 62
    7
 10
30920.442
 20
28417.544
 11
30764.591
 21
28353.122
  0
LINE
  8
0-0
  6
CONTINUOUS
 62
    7
 10
30924.309
 20
28408.2
 11
30920.442
 21
28417.544
  0
LINE
  8
0-0
  6
CONTINUOUS
 62
    7
 10
29541.563
 20
30443.455
 11
29505.182
 21
30692.522
  0
LINE
  8
0-0
  6
CONTINUOUS
 62
    7
 10
29672.182
 20
30558.82
 11
29524.713
 21
30558.82
  0
LINE
  8
0-0
  6
CONTINUOUS
 62
    7
 10
29672.182
 20
30541.966
 11
29527.176
 21
30541.966
  0
LINE
  8
0-0
  6
CONTINUOUS
 62
    7
 10
29672.182
 20
30811.631
 11
29187.623
 21
30811.631
  0
LINE
  8
0-0
  6
CONTINUOUS
 62
    7
 10
29672.182
 20
30828.478
 11
29187.623
 21
30828.478
  0
LINE
  8
0-0
  6
CONTINUOUS
 62
    7
 10
28793.298
 20
30968.143
 11
28800.395
 21
30970.299
  0
LINE
  8
0-0
  6
CONTINUOUS
 62
    7
 10
28800.395
 20
30970.299
 11
28807.471
 21
30977.634
  0
LINE
  8
0-0
  6
CONTINUOUS
 62
    7
 10
28807.471
 20
30977.634
 11
28811.709
 21
30987.58
  0
LINE
  8
0-0
  6
CONTINUOUS
 62
    7
 10
28811.709
 20
30987.58
 11
28813.34
 21
31000.528
  0
LINE
  8
0-0
  6
CONTINUOUS
 62
    7
 10
28813.34
 20
31000.528
 11
28811.709
 21
31013.483
  0
LINE
  8
0-0
  6
CONTINUOUS
 62
    7
 10
28811.709
 20
31013.483
 11
28807.471
 21
31023.429
  0
LINE
  8
0-0
  6
CONTINUOUS
 62
    7
 10
28807.471
 20
31023.429
 11
28800.395
 21
31030.756
  0
LINE
  8
0-0
  6
CONTINUOUS
 62
    7
 10
28800.395
 20
31030.756
 11
28793.298
 21
31032.912
  0
LINE
  8
0-0
  6
CONTINUOUS
 62
    7
 10
28793.298
 20
31032.912
 11
28786.194
 21
31030.756
  0
LINE
  8
0-0
  6
CONTINUOUS
 62
    7
 10
28786.194
 20
31030.756
 11
28779.122
 21
31023.429
  0
LINE
  8
0-0
  6
CONTINUOUS
 62
    7
 10
28779.122
 20
31023.429
 11
28774.884
 21
31013.483
  0
LINE
  8
0-0
  6
CONTINUOUS
 62
    7
 10
28774.884
 20
31013.483
 11
28773.253
 21
31000.528
  0
LINE
  8
0-0
  6
CONTINUOUS
 62
    7
 10
28773.253
 20
31000.528
 11
28774.884
 21
30987.58
  0
LINE
  8
0-0
  6
CONTINUOUS
 62
    7
 10
28774.884
 20
30987.58
 11
28779.122
 21
30977.634
  0
LINE
  8
0-0
  6
CONTINUOUS
 62
    7
 10
28779.122
 20
30977.634
 11
28786.194
 21
30970.299
  0
LINE
  8
0-0
  6
CONTINUOUS
 62
    7
 10
28786.194
 20
30970.299
 11
28793.298
 21
30968.143
  0
LINE
  8
0-0
  6
CONTINUOUS
 62
    7
 10
28745.495
 20
30968.143
 11
28752.596
 21
30970.299
  0
LINE
  8
0-0
  6
CONTINUOUS
 62
    7
 10
28752.596
 20
30970.299
 11
28759.672
 21
30977.634
  0
LINE
  8
0-0
  6
CONTINUOUS
 62
    7
 10
28759.672
 20
30977.634
 11
28763.909
 21
30987.58
  0
LINE
  8
0-0
  6
CONTINUOUS
 62
    7
 10
28763.909
 20
30987.58
 11
28765.54
 21
31000.528
  0
LINE
  8
0-0
  6
CONTINUOUS
 62
    7
 10
28765.54
 20
31000.528
 11
28763.909
 21
31013.483
  0
LINE
  8
0-0
  6
CONTINUOUS
 62
    7
 10
28763.909
 20
31013.483
 11
28759.672
 21
31023.429
  0
LINE
  8
0-0
  6
CONTINUOUS
 62
    7
 10
28759.672
 20
31023.429
 11
28752.596
 21
31030.756
  0
LINE
  8
0-0
  6
CONTINUOUS
 62
    7
 10
28752.596
 20
31030.756
 11
28745.495
 21
31032.912
  0
LINE
  8
0-0
  6
CONTINUOUS
 62
    7
 10
28745.495
 20
31032.912
 11
28738.391
 21
31030.756
  0
LINE
  8
0-0
  6
CONTINUOUS
 62
    7
 10
28738.391
 20
31030.756
 11
28731.322
 21
31023.429
  0
LINE
  8
0-0
  6
CONTINUOUS
 62
    7
 10
28731.322
 20
31023.429
 11
28727.081
 21
31013.483
  0
LINE
  8
0-0
  6
CONTINUOUS
 62
    7
 10
28727.081
 20
31013.483
 11
28725.446
 21
31000.528
  0
LINE
  8
0-0
  6
CONTINUOUS
 62
    7
 10
28725.446
 20
31000.528
 11
28727.081
 21
30987.58
  0
LINE
  8
0-0
  6
CONTINUOUS
 62
    7
 10
28727.081
 20
30987.58
 11
28731.322
 21
30977.634
  0
LINE
  8
0-0
  6
CONTINUOUS
 62
    7
 10
28731.322
 20
30977.634
 11
28738.391
 21
30970.299
  0
LINE
  8
0-0
  6
CONTINUOUS
 62
    7
 10
28738.391
 20
30970.299
 11
28745.495
 21
30968.143
  0
LINE
  8
0-0
  6
CONTINUOUS
 62
    7
 10
28769.397
 20
31042.13
 11
28755.21
 21
31052.53
  0
LINE
  8
0-0
  6
CONTINUOUS
 62
    7
 10
28755.21
 20
31052.53
 11
28740.662
 21
31054.056
  0
LINE
  8
0-0
  6
CONTINUOUS
 62
    7
 10
28740.662
 20
31054.056
 11
28727.13
 21
31047.561
  0
LINE
  8
0-0
  6
CONTINUOUS
 62
    7
 10
28727.13
 20
31047.561
 11
28715.004
 21
31031.981
  0
LINE
  8
0-0
  6
CONTINUOUS
 62
    7
 10
28715.004
 20
31031.981
 11
28708.824
 21
31012.384
  0
LINE
  8
0-0
  6
CONTINUOUS
 62
    7
 10
28708.824
 20
31012.384
 11
28708.705
 21
30989.938
  0
LINE
  8
0-0
  6
CONTINUOUS
 62
    7
 10
28829.97
 20
30989.126
 11
28830.078
 21
31011.684
  0
LINE
  8
0-0
  6
CONTINUOUS
 62
    7
 10
28830.078
 20
31011.684
 11
28824.01
 21
31031.526
  0
LINE
  8
0-0
  6
CONTINUOUS
 62
    7
 10
28824.01
 20
31031.526
 11
28811.902
 21
31047.365
  0
LINE
  8
0-0
  6
CONTINUOUS
 62
    7
 10
28811.902
 20
31047.365
 11
28798.313
 21
31054.014
  0
LINE
  8
0-0
  6
CONTINUOUS
 62
    7
 10
28798.313
 20
31054.014
 11
28783.678
 21
31052.558
  0
LINE
  8
0-0
  6
CONTINUOUS
 62
    7
 10
28783.678
 20
31052.558
 11
28769.397
 21
31042.13
  0
LINE
  8
0-0
  6
CONTINUOUS
 62
    7
 10
29135.008
 20
30956.21
 11
29152.344
 21
30960.689
  0
LINE
  8
0-0
  6
CONTINUOUS
 62
    7
 10
29152.344
 20
30960.689
 11
29168.438
 21
30974.715
  0
LINE
  8
0-0
  6
CONTINUOUS
 62
    7
 10
29168.438
 20
30974.715
 11
29178.503
 21
30994.481
  0
LINE
  8
0-0
  6
CONTINUOUS
 62
    7
 10
29178.503
 20
30994.481
 11
29182.279
 21
31019.39
  0
LINE
  8
0-0
  6
CONTINUOUS
 62
    7
 10
29182.279
 20
31019.39
 11
29178.503
 21
31044.314
  0
LINE
  8
0-0
  6
CONTINUOUS
 62
    7
 10
29178.503
 20
31044.314
 11
29168.438
 21
31064.079
  0
LINE
  8
0-0
  6
CONTINUOUS
 62
    7
 10
29168.438
 20
31064.079
 11
29152.344
 21
31078.105
  0
LINE
  8
0-0
  6
CONTINUOUS
 62
    7
 10
29152.344
 20
31078.105
 11
29135.008
 21
31082.591
  0
LINE
  8
0-0
  6
CONTINUOUS
 62
    7
 10
29135.008
 20
30983.723
 11
29141.317
 21
30985.928
  0
LINE
  8
0-0
  6
CONTINUOUS
 62
    7
 10
29141.317
 20
30985.928
 11
29148.075
 21
30994.173
  0
LINE
  8
0-0
  6
CONTINUOUS
 62
    7
 10
29148.075
 20
30994.173
 11
29151.959
 21
31004.993
  0
LINE
  8
0-0
  6
CONTINUOUS
 62
    7
 10
29151.959
 20
31004.993
 11
29153.481
 21
31019.39
  0
LINE
  8
0-0
  6
CONTINUOUS
 62
    7
 10
29153.481
 20
31019.39
 11
29151.959
 21
31033.801
  0
LINE
  8
0-0
  6
CONTINUOUS
 62
    7
 10
29151.959
 20
31033.801
 11
29148.075
 21
31044.622
  0
LINE
  8
0-0
  6
CONTINUOUS
 62
    7
 10
29148.075
 20
31044.622
 11
29141.317
 21
31052.859
  0
LINE
  8
0-0
  6
CONTINUOUS
 62
    7
 10
29141.317
 20
31052.859
 11
29135.008
 21
31055.071
  0
LINE
  8
0-0
  6
CONTINUOUS
 62
    7
 10
29126.581
 20
31055.071
 11
29120.275
 21
31052.859
  0
LINE
  8
0-0
  6
CONTINUOUS
 62
    7
 10
29120.275
 20
31052.859
 11
29113.521
 21
31044.622
  0
LINE
  8
0-0
  6
CONTINUOUS
 62
    7
 10
29113.521
 20
31044.622
 11
29109.633
 21
31033.801
  0
LINE
  8
0-0
  6
CONTINUOUS
 62
    7
 10
29109.633
 20
31033.801
 11
29108.107
 21
31019.39
  0
LINE
  8
0-0
  6
CONTINUOUS
 62
    7
 10
29108.107
 20
31019.39
 11
29109.633
 21
31004.993
  0
LINE
  8
0-0
  6
CONTINUOUS
 62
    7
 10
29109.633
 20
31004.993
 11
29113.521
 21
30994.173
  0
LINE
  8
0-0
  6
CONTINUOUS
 62
    7
 10
29113.521
 20
30994.173
 11
29120.275
 21
30985.928
  0
LINE
  8
0-0
  6
CONTINUOUS
 62
    7
 10
29120.275
 20
30985.928
 11
29126.581
 21
30983.723
  0
LINE
  8
0-0
  6
CONTINUOUS
 62
    7
 10
29126.581
 20
30983.723
 11
29132.89
 21
30985.928
  0
LINE
  8
0-0
  6
CONTINUOUS
 62
    7
 10
29132.89
 20
30985.928
 11
29139.651
 21
30994.173
  0
LINE
  8
0-0
  6
CONTINUOUS
 62
    7
 10
29139.651
 20
30994.173
 11
29143.529
 21
31004.993
  0
LINE
  8
0-0
  6
CONTINUOUS
 62
    7
 10
29143.529
 20
31004.993
 11
29145.058
 21
31019.39
  0
LINE
  8
0-0
  6
CONTINUOUS
 62
    7
 10
29145.058
 20
31019.39
 11
29143.529
 21
31033.801
  0
LINE
  8
0-0
  6
CONTINUOUS
 62
    7
 10
29143.529
 20
31033.801
 11
29139.651
 21
31044.622
  0
LINE
  8
0-0
  6
CONTINUOUS
 62
    7
 10
29139.651
 20
31044.622
 11
29132.89
 21
31052.859
  0
LINE
  8
0-0
  6
CONTINUOUS
 62
    7
 10
29132.89
 20
31052.859
 11
29126.581
 21
31055.071
  0
LINE
  8
0-0
  6
CONTINUOUS
 62
    7
 10
29126.581
 20
31082.591
 11
29109.244
 21
31078.105
  0
LINE
  8
0-0
  6
CONTINUOUS
 62
    7
 10
29109.244
 20
31078.105
 11
29093.157
 21
31064.079
  0
LINE
  8
0-0
  6
CONTINUOUS
 62
    7
 10
29093.157
 20
31064.079
 11
29083.085
 21
31044.314
  0
LINE
  8
0-0
  6
CONTINUOUS
 62
    7
 10
29083.085
 20
31044.314
 11
29079.316
 21
31019.39
  0
LINE
  8
0-0
  6
CONTINUOUS
 62
    7
 10
29079.316
 20
31019.39
 11
29083.085
 21
30994.481
  0
LINE
  8
0-0
  6
CONTINUOUS
 62
    7
 10
29083.085
 20
30994.481
 11
29093.157
 21
30974.715
  0
LINE
  8
0-0
  6
CONTINUOUS
 62
    7
 10
29093.157
 20
30974.715
 11
29109.244
 21
30960.689
  0
LINE
  8
0-0
  6
CONTINUOUS
 62
    7
 10
29109.244
 20
30960.689
 11
29126.581
 21
30956.21
  0
LINE
  8
0-0
  6
CONTINUOUS
 62
    7
 10
29126.581
 20
30956.21
 11
29143.921
 21
30960.689
  0
LINE
  8
0-0
  6
CONTINUOUS
 62
    7
 10
29143.921
 20
30960.689
 11
29160.012
 21
30974.715
  0
LINE
  8
0-0
  6
CONTINUOUS
 62
    7
 10
29160.012
 20
30974.715
 11
29170.08
 21
30994.481
  0
LINE
  8
0-0
  6
CONTINUOUS
 62
    7
 10
29170.08
 20
30994.481
 11
29173.856
 21
31019.39
  0
LINE
  8
0-0
  6
CONTINUOUS
 62
    7
 10
29173.856
 20
31019.39
 11
29170.08
 21
31044.314
  0
LINE
  8
0-0
  6
CONTINUOUS
 62
    7
 10
29170.08
 20
31044.314
 11
29160.012
 21
31064.079
  0
LINE
  8
0-0
  6
CONTINUOUS
 62
    7
 10
29160.012
 20
31064.079
 11
29143.921
 21
31078.105
  0
LINE
  8
0-0
  6
CONTINUOUS
 62
    7
 10
29143.921
 20
31078.105
 11
29126.581
 21
31082.591
  0
LINE
  8
0-0
  6
CONTINUOUS
 62
    7
 10
29192.76
 20
31075.823
 11
29239.359
 21
30987.377
  0
LINE
  8
0-0
  6
CONTINUOUS
 62
    7
 10
29206.989
 20
31075.823
 11
29253.854
 21
30986.88
  0
LINE
  8
0-0
  6
CONTINUOUS
 62
    7
 10
28959.861
 20
30888.991
 11
29062.344
 21
31074.038
  0
LINE
  8
0-0
  6
CONTINUOUS
 62
    7
 10
29294.449
 20
31041.171
 11
29378.727
 21
30888.991
  0
LINE
  8
0-0
  6
CONTINUOUS
 62
    7
 10
28833.69
 20
30443.455
 11
28870.063
 21
30692.522
  0
LINE
  8
0-0
  6
CONTINUOUS
 62
    7
 10
28823.576
 20
30946.586
 11
28993.761
 21
30946.586
  0
LINE
  8
0-0
  6
CONTINUOUS
 62
    7
 10
28854.757
 20
30748.409
 11
28913.748
 21
30811.631
  0
LINE
  8
0-0
  6
CONTINUOUS
 62
    7
 10
28703.078
 20
30811.631
 11
29187.623
 21
30811.631
  0
LINE
  8
0-0
  6
CONTINUOUS
 62
    7
 10
28703.078
 20
30828.478
 11
29187.623
 21
30828.478
  0
LINE
  8
0-0
  6
CONTINUOUS
 62
    7
 10
28603.076
 20
30700.179
 11
28531.084
 21
30455.396
  0
LINE
  8
0-0
  6
CONTINUOUS
 62
    7
 10
28833.69
 20
30558.82
 11
28833.69
 21
30811.631
  0
LINE
  8
0-0
  6
CONTINUOUS
 62
    7
 10
28670.28
 20
30434.301
 11
28724.243
 21
30536.927
  0
LINE
  8
0-0
  6
CONTINUOUS
 62
    7
 10
28703.078
 20
30558.82
 11
28642.4
 21
30604.328
  0
LINE
  8
0-0
  6
CONTINUOUS
 62
    7
 10
28703.078
 20
30558.82
 11
28703.078
 21
30541.966
  0
LINE
  8
0-0
  6
CONTINUOUS
 62
    7
 10
28703.078
 20
30558.82
 11
28850.543
 21
30558.82
  0
LINE
  8
0-0
  6
CONTINUOUS
 62
    7
 10
28703.078
 20
30541.966
 11
28848.076
 21
30541.966
  0
LINE
  8
0-0
  6
CONTINUOUS
 62
    7
 10
28805.823
 20
30828.478
 11
28829.97
 21
30989.126
  0
LINE
  8
0-0
  6
CONTINUOUS
 62
    7
 10
28708.705
 20
30989.938
 11
28731.179
 21
30828.478
  0
LINE
  8
0-0
  6
CONTINUOUS
 62
    7
 10
28703.078
 20
30811.631
 11
28642.4
 21
30766.124
  0
LINE
  8
0-0
  6
CONTINUOUS
 62
    7
 10
28703.078
 20
30811.631
 11
28703.078
 21
30828.478
  0
LINE
  8
0-0
  6
CONTINUOUS
 62
    7
 10
28909.055
 20
30434.924
 11
28945.429
 21
30683.99
  0
LINE
  8
0-0
  6
CONTINUOUS
 62
    7
 10
29466.201
 20
30434.924
 11
29429.823
 21
30683.99
  0
LINE
  8
0-0
  6
CONTINUOUS
 62
    7
 10
29120.212
 20
30558.82
 11
29120.212
 21
30811.631
  0
LINE
  8
0-0
  6
CONTINUOUS
 62
    7
 10
29061.22
 20
30748.409
 11
29043.887
 21
30743.937
  0
LINE
  8
0-0
  6
CONTINUOUS
 62
    7
 10
29043.887
 20
30743.937
 11
29027.797
 21
30729.911
  0
LINE
  8
0-0
  6
CONTINUOUS
 62
    7
 10
29027.797
 20
30729.911
 11
29017.722
 21
30710.146
  0
LINE
  8
0-0
  6
CONTINUOUS
 62
    7
 10
29017.722
 20
30710.146
 11
29013.953
 21
30685.222
  0
LINE
  8
0-0
  6
CONTINUOUS
 62
    7
 10
29013.953
 20
30685.222
 11
29017.722
 21
30660.306
  0
LINE
  8
0-0
  6
CONTINUOUS
 62
    7
 10
29017.722
 20
30660.306
 11
29027.797
 21
30640.541
  0
LINE
  8
0-0
  6
CONTINUOUS
 62
    7
 10
29027.797
 20
30640.541
 11
29043.887
 21
30626.522
  0
LINE
  8
0-0
  6
CONTINUOUS
 62
    7
 10
29043.887
 20
30626.522
 11
29061.22
 21
30622.035
  0
LINE
  8
0-0
  6
CONTINUOUS
 62
    7
 10
29069.651
 20
30748.409
 11
29052.314
 21
30743.937
  0
LINE
  8
0-0
  6
CONTINUOUS
 62
    7
 10
29052.314
 20
30743.937
 11
29036.22
 21
30729.911
  0
LINE
  8
0-0
  6
CONTINUOUS
 62
    7
 10
29036.22
 20
30729.911
 11
29026.148
 21
30710.146
  0
LINE
  8
0-0
  6
CONTINUOUS
 62
    7
 10
29026.148
 20
30710.146
 11
29022.379
 21
30685.222
  0
LINE
  8
0-0
  6
CONTINUOUS
 62
    7
 10
29022.379
 20
30685.222
 11
29026.148
 21
30660.306
  0
LINE
  8
0-0
  6
CONTINUOUS
 62
    7
 10
29026.148
 20
30660.306
 11
29036.22
 21
30640.541
  0
LINE
  8
0-0
  6
CONTINUOUS
 62
    7
 10
29036.22
 20
30640.541
 11
29052.314
 21
30626.522
  0
LINE
  8
0-0
  6
CONTINUOUS
 62
    7
 10
29052.314
 20
30626.522
 11
29069.651
 21
30622.035
  0
LINE
  8
0-0
  6
CONTINUOUS
 62
    7
 10
29069.651
 20
30622.035
 11
29086.984
 21
30626.522
  0
LINE
  8
0-0
  6
CONTINUOUS
 62
    7
 10
29086.984
 20
30626.522
 11
29103.075
 21
30640.541
  0
LINE
  8
0-0
  6
CONTINUOUS
 62
    7
 10
29103.075
 20
30640.541
 11
29113.15
 21
30660.306
  0
LINE
  8
0-0
  6
CONTINUOUS
 62
    7
 10
29113.15
 20
30660.306
 11
29116.922
 21
30685.222
  0
LINE
  8
0-0
  6
CONTINUOUS
 62
    7
 10
29116.922
 20
30685.222
 11
29113.15
 21
30710.146
  0
LINE
  8
0-0
  6
CONTINUOUS
 62
    7
 10
29113.15
 20
30710.146
 11
29103.075
 21
30729.911
  0
LINE
  8
0-0
  6
CONTINUOUS
 62
    7
 10
29103.075
 20
30729.911
 11
29086.984
 21
30743.937
  0
LINE
  8
0-0
  6
CONTINUOUS
 62
    7
 10
29086.984
 20
30743.937
 11
29069.651
 21
30748.409
  0
LINE
  8
0-0
  6
CONTINUOUS
 62
    7
 10
29255.041
 20
30558.82
 11
29255.041
 21
30811.631
  0
LINE
  8
0-0
  6
CONTINUOUS
 62
    7
 10
29314.032
 20
30622.035
 11
29331.368
 21
30626.522
  0
LINE
  8
0-0
  6
CONTINUOUS
 62
    7
 10
29331.368
 20
30626.522
 11
29347.456
 21
30640.541
  0
LINE
  8
0-0
  6
CONTINUOUS
 62
    7
 10
29347.456
 20
30640.541
 11
29357.527
 21
30660.306
  0
LINE
  8
0-0
  6
CONTINUOUS
 62
    7
 10
29357.527
 20
30660.306
 11
29361.296
 21
30685.222
  0
LINE
  8
0-0
  6
CONTINUOUS
 62
    7
 10
29361.296
 20
30685.222
 11
29357.527
 21
30710.146
  0
LINE
  8
0-0
  6
CONTINUOUS
 62
    7
 10
29357.527
 20
30710.146
 11
29347.456
 21
30729.911
  0
LINE
  8
0-0
  6
CONTINUOUS
 62
    7
 10
29347.456
 20
30729.911
 11
29331.368
 21
30743.937
  0
LINE
  8
0-0
  6
CONTINUOUS
 62
    7
 10
29331.368
 20
30743.937
 11
29314.032
 21
30748.409
  0
LINE
  8
0-0
  6
CONTINUOUS
 62
    7
 10
29305.605
 20
30748.409
 11
29288.268
 21
30743.937
  0
LINE
  8
0-0
  6
CONTINUOUS
 62
    7
 10
29288.268
 20
30743.937
 11
29272.178
 21
30729.911
  0
LINE
  8
0-0
  6
CONTINUOUS
 62
    7
 10
29272.178
 20
30729.911
 11
29262.103
 21
30710.146
  0
LINE
  8
0-0
  6
CONTINUOUS
 62
    7
 10
29262.103
 20
30710.146
 11
29258.334
 21
30685.222
  0
LINE
  8
0-0
  6
CONTINUOUS
 62
    7
 10
29258.334
 20
30685.222
 11
29262.103
 21
30660.306
  0
LINE
  8
0-0
  6
CONTINUOUS
 62
    7
 10
29262.103
 20
30660.306
 11
29272.178
 21
30640.541
  0
LINE
  8
0-0
  6
CONTINUOUS
 62
    7
 10
29272.178
 20
30640.541
 11
29288.268
 21
30626.522
  0
LINE
  8
0-0
  6
CONTINUOUS
 62
    7
 10
29288.268
 20
30626.522
 11
29305.605
 21
30622.035
  0
LINE
  8
0-0
  6
CONTINUOUS
 62
    7
 10
29305.605
 20
30622.035
 11
29322.938
 21
30626.522
  0
LINE
  8
0-0
  6
CONTINUOUS
 62
    7
 10
29322.938
 20
30626.522
 11
29339.029
 21
30640.541
  0
LINE
  8
0-0
  6
CONTINUOUS
 62
    7
 10
29339.029
 20
30640.541
 11
29349.104
 21
30660.306
  0
LINE
  8
0-0
  6
CONTINUOUS
 62
    7
 10
29349.104
 20
30660.306
 11
29352.873
 21
30685.222
  0
LINE
  8
0-0
  6
CONTINUOUS
 62
    7
 10
29352.873
 20
30685.222
 11
29349.104
 21
30710.146
  0
LINE
  8
0-0
  6
CONTINUOUS
 62
    7
 10
29349.104
 20
30710.146
 11
29339.029
 21
30729.911
  0
LINE
  8
0-0
  6
CONTINUOUS
 62
    7
 10
29339.029
 20
30729.911
 11
29322.938
 21
30743.937
  0
LINE
  8
0-0
  6
CONTINUOUS
 62
    7
 10
29322.938
 20
30743.937
 11
29305.605
 21
30748.409
  0
LINE
  8
0-0
  6
CONTINUOUS
 62
    7
 10
29153.971
 20
30208.576
 11
29202.594
 21
30203.557
  0
LINE
  8
0-0
  6
CONTINUOUS
 62
    7
 10
29202.594
 20
30203.557
 11
29252.78
 21
30230.09
  0
LINE
  8
0-0
  6
CONTINUOUS
 62
    7
 10
29252.78
 20
30230.09
 11
29289.682
 21
30280.371
  0
LINE
  8
0-0
  6
CONTINUOUS
 62
    7
 10
29289.682
 20
30280.371
 11
29318.189
 21
30364.143
  0
LINE
  8
0-0
  6
CONTINUOUS
 62
    7
 10
29318.189
 20
30364.143
 11
29326.843
 21
30453.499
  0
LINE
  8
0-0
  6
CONTINUOUS
 62
    7
 10
29326.843
 20
30453.499
 11
29316.635
 21
30541.966
  0
LINE
  8
0-0
  6
CONTINUOUS
 62
    7
 10
29196.105
 20
30201.612
 11
29239.062
 21
30209.401
  0
LINE
  8
0-0
  6
CONTINUOUS
 62
    7
 10
29239.062
 20
30209.401
 11
29284.192
 21
30245.992
  0
LINE
  8
0-0
  6
CONTINUOUS
 62
    7
 10
29284.192
 20
30245.992
 11
29315.435
 21
30299.416
  0
LINE
  8
0-0
  6
CONTINUOUS
 62
    7
 10
29315.435
 20
30299.416
 11
29337.727
 21
30378.624
  0
LINE
  8
0-0
  6
CONTINUOUS
 62
    7
 10
29337.727
 20
30378.624
 11
29343.491
 21
30461.387
  0
LINE
  8
0-0
  6
CONTINUOUS
 62
    7
 10
29343.491
 20
30461.387
 11
29333.489
 21
30541.966
  0
LINE
  8
0-0
  6
CONTINUOUS
 62
    7
 10
29102.683
 20
30405.318
 11
29179.507
 21
30541.966
  0
LINE
  8
0-0
  6
CONTINUOUS
 62
    7
 10
29120.247
 20
30409.209
 11
29194.881
 21
30541.966
  0
LINE
  8
0-0
  6
CONTINUOUS
 62
    7
 10
29012.164
 20
30473.432
 11
29013.75
 21
30393.034
  0
LINE
  8
0-0
  6
CONTINUOUS
 62
    7
 10
29013.75
 20
30393.034
 11
29029.56
 21
30325.634
  0
LINE
  8
0-0
  6
CONTINUOUS
 62
    7
 10
29029.56
 20
30325.634
 11
29061.735
 21
30267.444
  0
LINE
  8
0-0
  6
CONTINUOUS
 62
    7
 10
29061.735
 20
30267.444
 11
29094.648
 21
30242.927
  0
LINE
  8
0-0
  6
CONTINUOUS
 62
    7
 10
29094.648
 20
30242.927
 11
29132.32
 21
30241.821
  0
LINE
  8
0-0
  6
CONTINUOUS
 62
    7
 10
29132.32
 20
30241.821
 11
29173.205
 21
30268.809
  0
LINE
  8
0-0
  6
CONTINUOUS
 62
    7
 10
29173.205
 20
30268.809
 11
29202.146
 21
30315.003
  0
LINE
  8
0-0
  6
CONTINUOUS
 62
    7
 10
29202.146
 20
30315.003
 11
29223.92
 21
30389.682
  0
LINE
  8
0-0
  6
CONTINUOUS
 62
    7
 10
29223.92
 20
30389.682
 11
29229.624
 21
30468.071
  0
LINE
  8
0-0
  6
CONTINUOUS
 62
    7
 10
29229.624
 20
30468.071
 11
29220.133
 21
30541.966
  0
LINE
  8
0-0
  6
CONTINUOUS
 62
    7
 10
28982.944
 20
30411.288
 11
29005.977
 21
30307.087
  0
LINE
  8
0-0
  6
CONTINUOUS
 62
    7
 10
29005.977
 20
30307.087
 11
29044.776
 21
30240.981
  0
LINE
  8
0-0
  6
CONTINUOUS
 62
    7
 10
29044.776
 20
30240.981
 11
29101.986
 21
30204.852
  0
LINE
  8
0-0
  6
CONTINUOUS
 62
    7
 10
29101.986
 20
30204.852
 11
29157.075
 21
30210.024
  0
LINE
  8
0-0
  6
CONTINUOUS
 62
    7
 10
29157.075
 20
30210.024
 11
29203.748
 21
30250.57
  0
LINE
  8
0-0
  6
CONTINUOUS
 62
    7
 10
29203.748
 20
30250.57
 11
29244.759
 21
30339.121
  0
LINE
  8
0-0
  6
CONTINUOUS
 62
    7
 10
29244.759
 20
30339.121
 11
29259.495
 21
30439.081
  0
LINE
  8
0-0
  6
CONTINUOUS
 62
    7
 10
29259.495
 20
30439.081
 11
29249.217
 21
30541.966
  0
LINE
  8
0-0
  6
CONTINUOUS
 62
    7
 10
28984.084
 20
30415.683
 11
29027.114
 21
30581.819
  0
LINE
  8
0-0
  6
CONTINUOUS
 62
    7
 10
29391.168
 20
30415.683
 11
29348.134
 21
30581.819
  0
LINE
  8
0-0
  6
CONTINUOUS
 62
    7
 10
29121.996
 20
30355.177
 11
29110.042
 21
30355.177
  0
LINE
  8
0-0
  6
CONTINUOUS
 62
    7
 10
29074.239
 20
30393.153
 11
29082.606
 21
30396.506
  0
LINE
  8
0-0
  6
CONTINUOUS
 62
    7
 10
29082.606
 20
30396.506
 11
29092.034
 21
30409.811
  0
LINE
  8
0-0
  6
CONTINUOUS
 62
    7
 10
29092.034
 20
30409.811
 11
29097.195
 21
30426.805
  0
LINE
  8
0-0
  6
CONTINUOUS
 62
    7
 10
29097.195
 20
30426.805
 11
29099.096
 21
30449.677
  0
LINE
  8
0-0
  6
CONTINUOUS
 62
    7
 10
29099.096
 20
30449.677
 11
29096.765
 21
30472.515
  0
LINE
  8
0-0
  6
CONTINUOUS
 62
    7
 10
29096.765
 20
30472.515
 11
29091.285
 21
30489.404
  0
LINE
  8
0-0
  6
CONTINUOUS
 62
    7
 10
29091.285
 20
30489.404
 11
29081.612
 21
30502.52
  0
LINE
  8
0-0
  6
CONTINUOUS
 62
    7
 10
29081.612
 20
30502.52
 11
29073.178
 21
30505.719
  0
LINE
  8
0-0
  6
CONTINUOUS
 62
    7
 10
29073.178
 20
30505.719
 11
29064.811
 21
30502.373
  0
LINE
  8
0-0
  6
CONTINUOUS
 62
    7
 10
29064.811
 20
30502.373
 11
29055.383
 21
30489.068
  0
LINE
  8
0-0
  6
CONTINUOUS
 62
    7
 10
29055.383
 20
30489.068
 11
29050.225
 21
30472.074
  0
LINE
  8
0-0
  6
CONTINUOUS
 62
    7
 10
29050.225
 20
30472.074
 11
29048.321
 21
30449.202
  0
LINE
  8
0-0
  6
CONTINUOUS
 62
    7
 10
29048.321
 20
30449.202
 11
29050.652
 21
30426.357
  0
LINE
  8
0-0
  6
CONTINUOUS
 62
    7
 10
29050.652
 20
30426.357
 11
29056.129
 21
30409.475
  0
LINE
  8
0-0
  6
CONTINUOUS
 62
    7
 10
29056.129
 20
30409.475
 11
29065.805
 21
30396.352
  0
LINE
  8
0-0
  6
CONTINUOUS
 62
    7
 10
29065.805
 20
30396.352
 11
29074.239
 21
30393.153
  0
LINE
  8
0-0
  6
CONTINUOUS
 62
    7
 10
29074.13
 20
30393.153
 11
29087.015
 21
30393.153
  0
LINE
  8
0-0
  6
CONTINUOUS
 62
    7
 10
29087.015
 20
30393.153
 11
29095.946
 21
30396.884
  0
LINE
  8
0-0
  6
CONTINUOUS
 62
    7
 10
29095.946
 20
30396.884
 11
29105.934
 21
30412.275
  0
LINE
  8
0-0
  6
CONTINUOUS
 62
    7
 10
29105.934
 20
30412.275
 11
29110.924
 21
30431.774
  0
LINE
  8
0-0
  6
CONTINUOUS
 62
    7
 10
29110.924
 20
30431.774
 11
29111.715
 21
30456.635
  0
LINE
  8
0-0
  6
CONTINUOUS
 62
    7
 10
29111.715
 20
30456.635
 11
29107.487
 21
30481.005
  0
LINE
  8
0-0
  6
CONTINUOUS
 62
    7
 10
29107.487
 20
30481.005
 11
29100.432
 21
30496.109
  0
LINE
  8
0-0
  6
CONTINUOUS
 62
    7
 10
29100.432
 20
30496.109
 11
29089.524
 21
30504.711
  0
LINE
  8
0-0
  6
CONTINUOUS
 62
    7
 10
29089.524
 20
30504.711
 11
29079.747
 21
30503.878
  0
LINE
  8
0-0
  6
CONTINUOUS
 62
    7
 10
29102.613
 20
30393.153
 11
29110.899
 21
30396.359
  0
LINE
  8
0-0
  6
CONTINUOUS
 62
    7
 10
29110.899
 20
30396.359
 11
29120.247
 21
30409.209
  0
LINE
  8
0-0
  6
CONTINUOUS
 62
    7
 10
29085.042
 20
30393.153
 11
29102.613
 21
30393.153
  0
LINE
  8
0-0
  6
CONTINUOUS
 62
    7
 10
29121.839
 20
30355.177
 11
29131.68
 21
30360.216
  0
LINE
  8
0-0
  6
CONTINUOUS
 62
    7
 10
29131.68
 20
30360.216
 11
29144.183
 21
30387.274
  0
LINE
  8
0-0
  6
CONTINUOUS
 62
    7
 10
29144.183
 20
30387.274
 11
29149.712
 21
30419.897
  0
LINE
  8
0-0
  6
CONTINUOUS
 62
    7
 10
29149.712
 20
30419.897
 11
29150.041
 21
30462.206
  0
LINE
  8
0-0
  6
CONTINUOUS
 62
    7
 10
29085.042
 20
30393.153
 11
29096.873
 21
30363.982
  0
LINE
  8
0-0
  6
CONTINUOUS
 62
    7
 10
29096.873
 20
30363.982
 11
29106.294
 21
30355.891
  0
LINE
  8
0-0
  6
CONTINUOUS
 62
    7
 10
29106.294
 20
30355.891
 11
29116.17
 21
30357.752
  0
LINE
  8
0-0
  6
CONTINUOUS
 62
    7
 10
29116.17
 20
30357.752
 11
29128.792
 21
30376.356
  0
LINE
  8
0-0
  6
CONTINUOUS
 62
    7
 10
29128.792
 20
30376.356
 11
29135.543
 21
30402.315
  0
LINE
  8
0-0
  6
CONTINUOUS
 62
    7
 10
29135.543
 20
30402.315
 11
29138.647
 21
30441.937
  0
LINE
  8
0-0
  6
CONTINUOUS
 62
    7
 10
29238.239
 20
30208.576
 11
29309.398
 21
30213.489
  0
LINE
  8
0-0
  6
CONTINUOUS
 62
    7
 10
29309.398
 20
30213.489
 11
29382.29
 21
30298.513
  0
LINE
  8
0-0
  6
CONTINUOUS
 62
    7
 10
29002.677
 20
30487.486
 11
29059.842
 21
30402.805
  0
LINE
  8
0-0
  6
CONTINUOUS
 62
    7
 10
29061.22
 20
30558.82
 11
29007.968
 21
30615.89
  0
LINE
  8
0-0
  6
CONTINUOUS
 62
    7
 10
28989.589
 20
30622.035
 11
29048.584
 21
30558.82
  0
LINE
  8
0-0
  6
CONTINUOUS
 62
    7
 10
29061.22
 20
30622.035
 11
29069.651
 21
30622.035
  0
LINE
  8
0-0
  6
CONTINUOUS
 62
    7
 10
29016.791
 20
30541.966
 11
29187.623
 21
30541.966
  0
LINE
  8
0-0
  6
CONTINUOUS
 62
    7
 10
29021.158
 20
30558.82
 11
29187.623
 21
30558.82
  0
LINE
  8
0-0
  6
CONTINUOUS
 62
    7
 10
29314.032
 20
30558.82
 11
29367.284
 21
30615.89
  0
LINE
  8
0-0
  6
CONTINUOUS
 62
    7
 10
29385.66
 20
30622.035
 11
29326.672
 21
30558.82
  0
LINE
  8
0-0
  6
CONTINUOUS
 62
    7
 10
29314.032
 20
30622.035
 11
29305.605
 21
30622.035
  0
LINE
  8
0-0
  6
CONTINUOUS
 62
    7
 10
29358.462
 20
30541.966
 11
29187.623
 21
30541.966
  0
LINE
  8
0-0
  6
CONTINUOUS
 62
    7
 10
29354.098
 20
30558.82
 11
29187.623
 21
30558.82
  0
LINE
  8
0-0
  6
CONTINUOUS
 62
    7
 10
29135.008
 20
30956.21
 11
29126.581
 21
30956.21
  0
LINE
  8
0-0
  6
CONTINUOUS
 62
    7
 10
29135.008
 20
30983.723
 11
29126.581
 21
30983.723
  0
LINE
  8
0-0
  6
CONTINUOUS
 62
    7
 10
29217.956
 20
30828.478
 11
29217.956
 21
30869.037
  0
LINE
  8
0-0
  6
CONTINUOUS
 62
    7
 10
29201.362
 20
30828.478
 11
29201.362
 21
30868.575
  0
LINE
  8
0-0
  6
CONTINUOUS
 62
    7
 10
29238.939
 20
30947.321
 11
29206.639
 21
30888.991
  0
LINE
  8
0-0
  6
CONTINUOUS
 62
    7
 10
29222.814
 20
30888.684
 11
29253.854
 21
30947.594
  0
LINE
  8
0-0
  6
CONTINUOUS
 62
    7
 10
29258.705
 20
30828.478
 11
29258.705
 21
30966.429
  0
LINE
  8
0-0
  6
CONTINUOUS
 62
    7
 10
28954.587
 20
30828.478
 11
28954.587
 21
30868.575
  0
LINE
  8
0-0
  6
CONTINUOUS
 62
    7
 10
29003.192
 20
30828.478
 11
29003.192
 21
30967.233
  0
LINE
  8
0-0
  6
CONTINUOUS
 62
    7
 10
29384.001
 20
30828.478
 11
29384.001
 21
30868.575
  0
LINE
  8
0-0
  6
CONTINUOUS
 62
    7
 10
29335.389
 20
30828.478
 11
29335.389
 21
30967.233
  0
LINE
  8
0-0
  6
CONTINUOUS
 62
    7
 10
28879.652
 20
30903.444
 11
28868.856
 21
30903.444
  0
LINE
  8
0-0
  6
CONTINUOUS
 62
    7
 10
28868.51
 20
30863.228
 11
28879.463
 21
30863.228
  0
LINE
  8
0-0
  6
CONTINUOUS
 62
    7
 10
28870.224
 20
30693.74
 11
28870.063
 21
30692.522
  0
LINE
  8
0-0
  6
CONTINUOUS
 62
    7
 10
28915.015
 20
30752.266
 11
28993.18
 21
30752.266
  0
LINE
  8
0-0
  6
CONTINUOUS
 62
    7
 10
29061.22
 20
30720.903
 11
29054.911
 21
30718.685
  0
LINE
  8
0-0
  6
CONTINUOUS
 62
    7
 10
29054.911
 20
30718.685
 11
29048.157
 21
30710.447
  0
LINE
  8
0-0
  6
CONTINUOUS
 62
    7
 10
29048.157
 20
30710.447
 11
29044.272
 21
30699.633
  0
LINE
  8
0-0
  6
CONTINUOUS
 62
    7
 10
29044.272
 20
30699.633
 11
29042.743
 21
30685.222
  0
LINE
  8
0-0
  6
CONTINUOUS
 62
    7
 10
29042.743
 20
30685.222
 11
29044.272
 21
30670.818
  0
LINE
  8
0-0
  6
CONTINUOUS
 62
    7
 10
29044.272
 20
30670.818
 11
29048.157
 21
30659.991
  0
LINE
  8
0-0
  6
CONTINUOUS
 62
    7
 10
29048.157
 20
30659.991
 11
29054.911
 21
30651.76
  0
LINE
  8
0-0
  6
CONTINUOUS
 62
    7
 10
29054.911
 20
30651.76
 11
29061.22
 21
30649.548
  0
LINE
  8
0-0
  6
CONTINUOUS
 62
    7
 10
29069.651
 20
30720.903
 11
29063.341
 21
30718.685
  0
LINE
  8
0-0
  6
CONTINUOUS
 62
    7
 10
29063.341
 20
30718.685
 11
29056.584
 21
30710.447
  0
LINE
  8
0-0
  6
CONTINUOUS
 62
    7
 10
29056.584
 20
30710.447
 11
29052.699
 21
30699.633
  0
LINE
  8
0-0
  6
CONTINUOUS
 62
    7
 10
29052.699
 20
30699.633
 11
29051.17
 21
30685.222
  0
LINE
  8
0-0
  6
CONTINUOUS
 62
    7
 10
29051.17
 20
30685.222
 11
29052.699
 21
30670.818
  0
LINE
  8
0-0
  6
CONTINUOUS
 62
    7
 10
29052.699
 20
30670.818
 11
29056.584
 21
30659.991
  0
LINE
  8
0-0
  6
CONTINUOUS
 62
    7
 10
29056.584
 20
30659.991
 11
29063.341
 21
30651.76
  0
LINE
  8
0-0
  6
CONTINUOUS
 62
    7
 10
29063.341
 20
30651.76
 11
29069.651
 21
30649.548
  0
LINE
  8
0-0
  6
CONTINUOUS
 62
    7
 10
29069.651
 20
30649.548
 11
29075.953
 21
30651.76
  0
LINE
  8
0-0
  6
CONTINUOUS
 62
    7
 10
29075.953
 20
30651.76
 11
29082.714
 21
30659.991
  0
LINE
  8
0-0
  6
CONTINUOUS
 62
    7
 10
29082.714
 20
30659.991
 11
29086.595
 21
30670.818
  0
LINE
  8
0-0
  6
CONTINUOUS
 62
    7
 10
29086.595
 20
30670.818
 11
29088.128
 21
30685.222
  0
LINE
  8
0-0
  6
CONTINUOUS
 62
    7
 10
29088.128
 20
30685.222
 11
29086.595
 21
30699.633
  0
LINE
  8
0-0
  6
CONTINUOUS
 62
    7
 10
29086.595
 20
30699.633
 11
29082.714
 21
30710.447
  0
LINE
  8
0-0
  6
CONTINUOUS
 62
    7
 10
29082.714
 20
30710.447
 11
29075.953
 21
30718.685
  0
LINE
  8
0-0
  6
CONTINUOUS
 62
    7
 10
29075.953
 20
30718.685
 11
29069.651
 21
30720.903
  0
LINE
  8
0-0
  6
CONTINUOUS
 62
    7
 10
29061.22
 20
30649.548
 11
29069.651
 21
30649.548
  0
LINE
  8
0-0
  6
CONTINUOUS
 62
    7
 10
28989.589
 20
30748.409
 11
29048.584
 21
30811.631
  0
LINE
  8
0-0
  6
CONTINUOUS
 62
    7
 10
29061.22
 20
30748.409
 11
29069.651
 21
30748.409
  0
LINE
  8
0-0
  6
CONTINUOUS
 62
    7
 10
29061.22
 20
30720.903
 11
29070.659
 21
30720.903
  0
LINE
  8
0-0
  6
CONTINUOUS
 62
    7
 10
29061.22
 20
30811.631
 11
29007.968
 21
30754.561
  0
LINE
  8
0-0
  6
CONTINUOUS
 62
    7
 10
28926.392
 20
30811.631
 11
28873.14
 21
30754.561
  0
LINE
  8
0-0
  6
CONTINUOUS
 62
    7
 10
29505.024
 20
30693.74
 11
29505.182
 21
30692.522
  0
LINE
  8
0-0
  6
CONTINUOUS
 62
    7
 10
29460.238
 20
30752.266
 11
29382.066
 21
30752.266
  0
LINE
  8
0-0
  6
CONTINUOUS
 62
    7
 10
29314.032
 20
30649.548
 11
29320.334
 21
30651.76
  0
LINE
  8
0-0
  6
CONTINUOUS
 62
    7
 10
29320.334
 20
30651.76
 11
29327.095
 21
30659.991
  0
LINE
  8
0-0
  6
CONTINUOUS
 62
    7
 10
29327.095
 20
30659.991
 11
29330.98
 21
30670.818
  0
LINE
  8
0-0
  6
CONTINUOUS
 62
    7
 10
29330.98
 20
30670.818
 11
29332.506
 21
30685.222
  0
LINE
  8
0-0
  6
CONTINUOUS
 62
    7
 10
29332.506
 20
30685.222
 11
29330.98
 21
30699.633
  0
LINE
  8
0-0
  6
CONTINUOUS
 62
    7
 10
29330.98
 20
30699.633
 11
29327.095
 21
30710.447
  0
LINE
  8
0-0
  6
CONTINUOUS
 62
    7
 10
29327.095
 20
30710.447
 11
29320.334
 21
30718.685
  0
LINE
  8
0-0
  6
CONTINUOUS
 62
    7
 10
29320.334
 20
30718.685
 11
29314.032
 21
30720.903
  0
LINE
  8
0-0
  6
CONTINUOUS
 62
    7
 10
29305.605
 20
30720.903
 11
29299.299
 21
30718.685
  0
LINE
  8
0-0
  6
CONTINUOUS
 62
    7
 10
29299.299
 20
30718.685
 11
29292.538
 21
30710.447
  0
LINE
  8
0-0
  6
CONTINUOUS
 62
    7
 10
29292.538
 20
30710.447
 11
29288.653
 21
30699.633
  0
LINE
  8
0-0
  6
CONTINUOUS
 62
    7
 10
29288.653
 20
30699.633
 11
29287.131
 21
30685.222
  0
LINE
  8
0-0
  6
CONTINUOUS
 62
    7
 10
29287.131
 20
30685.222
 11
29288.653
 21
30670.818
  0
LINE
  8
0-0
  6
CONTINUOUS
 62
    7
 10
29288.653
 20
30670.818
 11
29292.538
 21
30659.991
  0
LINE
  8
0-0
  6
CONTINUOUS
 62
    7
 10
29292.538
 20
30659.991
 11
29299.299
 21
30651.76
  0
LINE
  8
0-0
  6
CONTINUOUS
 62
    7
 10
29299.299
 20
30651.76
 11
29305.605
 21
30649.548
  0
LINE
  8
0-0
  6
CONTINUOUS
 62
    7
 10
29305.605
 20
30649.548
 11
29311.915
 21
30651.76
  0
LINE
  8
0-0
  6
CONTINUOUS
 62
    7
 10
29311.915
 20
30651.76
 11
29318.669
 21
30659.991
  0
LINE
  8
0-0
  6
CONTINUOUS
 62
    7
 10
29318.669
 20
30659.991
 11
29322.553
 21
30670.818
  0
LINE
  8
0-0
  6
CONTINUOUS
 62
    7
 10
29322.553
 20
30670.818
 11
29324.082
 21
30685.222
  0
LINE
  8
0-0
  6
CONTINUOUS
 62
    7
 10
29324.082
 20
30685.222
 11
29322.553
 21
30699.633
  0
LINE
  8
0-0
  6
CONTINUOUS
 62
    7
 10
29322.553
 20
30699.633
 11
29318.669
 21
30710.447
  0
LINE
  8
0-0
  6
CONTINUOUS
 62
    7
 10
29318.669
 20
30710.447
 11
29311.915
 21
30718.685
  0
LINE
  8
0-0
  6
CONTINUOUS
 62
    7
 10
29311.915
 20
30718.685
 11
29305.605
 21
30720.903
  0
LINE
  8
0-0
  6
CONTINUOUS
 62
    7
 10
29314.032
 20
30649.548
 11
29305.605
 21
30649.548
  0
LINE
  8
0-0
  6
CONTINUOUS
 62
    7
 10
29385.66
 20
30748.409
 11
29326.672
 21
30811.631
  0
LINE
  8
0-0
  6
CONTINUOUS
 62
    7
 10
29520.496
 20
30748.409
 11
29461.501
 21
30811.631
  0
LINE
  8
0-0
  6
CONTINUOUS
 62
    7
 10
29314.032
 20
30748.409
 11
29305.605
 21
30748.409
  0
LINE
  8
0-0
  6
CONTINUOUS
 62
    7
 10
29314.032
 20
30720.903
 11
29304.594
 21
30720.903
  0
LINE
  8
0-0
  6
CONTINUOUS
 62
    7
 10
29314.032
 20
30811.631
 11
29367.284
 21
30754.561
  0
LINE
  8
0-0
  6
CONTINUOUS
 62
    7
 10
29448.861
 20
30811.631
 11
29502.116
 21
30754.561
  0
LINE
  8
0-0
  6
CONTINUOUS
 62
    7
 10
28795.881
 20
31054.371
 11
29058.526
 21
31054.371
  0
LINE
  8
0-0
  6
CONTINUOUS
 62
    7
 10
28745.495
 20
31054.497
 11
28793.298
 21
31054.497
  0
LINE
  8
0-0
  6
CONTINUOUS
 62
    7
 10
29187.623
 20
31231.32
 11
29187.623
 21
31432.955
  0
LINE
  8
0-0
  6
CONTINUOUS
 62
    7
 10
29135.008
 20
31082.591
 11
29126.581
 21
31082.591
  0
LINE
  8
0-0
  6
CONTINUOUS
 62
    7
 10
29135.008
 20
31055.071
 11
29125.576
 21
31055.071
  0
LINE
  8
0-0
  6
CONTINUOUS
 62
    7
 10
29129.163
 20
31118.321
 11
29143.396
 21
31118.321
  0
LINE
  8
0-0
  6
CONTINUOUS
 62
    7
 10
29192.76
 20
31075.823
 11
29163.599
 21
31107.984
  0
LINE
  8
0-0
  6
CONTINUOUS
 62
    7
 10
29163.599
 20
31107.984
 11
29128.31
 21
31118.307
  0
LINE
  8
0-0
  6
CONTINUOUS
 62
    7
 10
29128.31
 20
31118.307
 11
29092.832
 21
31107.242
  0
LINE
  8
0-0
  6
CONTINUOUS
 62
    7
 10
29092.832
 20
31107.242
 11
29062.344
 21
31074.038
  0
LINE
  8
0-0
  6
CONTINUOUS
 62
    7
 10
29206.989
 20
31075.823
 11
29178.226
 21
31107.753
  0
LINE
  8
0-0
  6
CONTINUOUS
 62
    7
 10
29178.226
 20
31107.753
 11
29143.396
 21
31118.321
  0
LINE
  8
0-0
  6
CONTINUOUS
 62
    7
 10
29187.623
 20
31264.607
 11
29183.343
 21
31263.537
  0
LINE
  8
0-0
  6
CONTINUOUS
 62
    7
 10
29183.343
 20
31263.537
 11
29179.437
 21
31260.268
  0
LINE
  8
0-0
  6
CONTINUOUS
 62
    7
 10
29179.437
 20
31260.268
 11
29176.963
 21
31255.628
  0
LINE
  8
0-0
  6
CONTINUOUS
 62
    7
 10
29176.963
 20
31255.628
 11
29176.05
 21
31249.833
  0
LINE
  8
0-0
  6
CONTINUOUS
 62
    7
 10
29176.05
 20
31249.833
 11
29176.963
 21
31244.03
  0
LINE
  8
0-0
  6
CONTINUOUS
 62
    7
 10
29176.963
 20
31244.03
 11
29179.437
 21
31239.39
  0
LINE
  8
0-0
  6
CONTINUOUS
 62
    7
 10
29179.437
 20
31239.39
 11
29183.343
 21
31236.121
  0
LINE
  8
0-0
  6
CONTINUOUS
 62
    7
 10
29183.343
 20
31236.121
 11
29187.623
 21
31235.065
  0
LINE
  8
0-0
  6
CONTINUOUS
 62
    7
 10
29187.623
 20
31235.065
 11
29191.906
 21
31236.121
  0
LINE
  8
0-0
  6
CONTINUOUS
 62
    7
 10
29191.906
 20
31236.121
 11
29195.815
 21
31239.39
  0
LINE
  8
0-0
  6
CONTINUOUS
 62
    7
 10
29195.815
 20
31239.39
 11
29198.289
 21
31244.03
  0
LINE
  8
0-0
  6
CONTINUOUS
 62
    7
 10
29198.289
 20
31244.03
 11
29199.21
 21
31249.833
  0
LINE
  8
0-0
  6
CONTINUOUS
 62
    7
 10
29199.21
 20
31249.833
 11
29198.289
 21
31255.628
  0
LINE
  8
0-0
  6
CONTINUOUS
 62
    7
 10
29198.289
 20
31255.628
 11
29195.815
 21
31260.268
  0
LINE
  8
0-0
  6
CONTINUOUS
 62
    7
 10
29195.815
 20
31260.268
 11
29191.906
 21
31263.537
  0
LINE
  8
0-0
  6
CONTINUOUS
 62
    7
 10
29191.906
 20
31263.537
 11
29187.623
 21
31264.607
  0
LINE
  8
0-0
  6
CONTINUOUS
 62
    7
 10
29219.122
 20
31249.7
 11
29216.693
 21
31264.062
  0
LINE
  8
0-0
  6
CONTINUOUS
 62
    7
 10
29216.693
 20
31264.062
 11
29209.939
 21
31275.799
  0
LINE
  8
0-0
  6
CONTINUOUS
 62
    7
 10
29209.939
 20
31275.799
 11
29199.451
 21
31283.904
  0
LINE
  8
0-0
  6
CONTINUOUS
 62
    7
 10
29199.451
 20
31283.904
 11
29187.623
 21
31286.619
  0
LINE
  8
0-0
  6
CONTINUOUS
 62
    7
 10
29187.623
 20
31286.619
 11
29175.801
 21
31283.904
  0
LINE
  8
0-0
  6
CONTINUOUS
 62
    7
 10
29175.801
 20
31283.904
 11
29165.313
 21
31275.799
  0
LINE
  8
0-0
  6
CONTINUOUS
 62
    7
 10
29165.313
 20
31275.799
 11
29158.559
 21
31264.062
  0
LINE
  8
0-0
  6
CONTINUOUS
 62
    7
 10
29158.559
 20
31264.062
 11
29156.131
 21
31249.7
  0
LINE
  8
0-0
  6
CONTINUOUS
 62
    7
 10
29173.863
 20
31286.619
 11
29161.978
 21
31283.953
  0
LINE
  8
0-0
  6
CONTINUOUS
 62
    7
 10
29161.978
 20
31283.953
 11
29151.434
 21
31275.869
  0
LINE
  8
0-0
  6
CONTINUOUS
 62
    7
 10
29151.434
 20
31275.869
 11
29144.635
 21
31264.125
  0
LINE
  8
0-0
  6
CONTINUOUS
 62
    7
 10
29144.635
 20
31264.125
 11
29142.185
 21
31249.7
  0
LINE
  8
0-0
  6
CONTINUOUS
 62
    7
 10
29187.623
 20
31286.619
 11
29173.555
 21
31286.619
  0
LINE
  8
0-0
  6
CONTINUOUS
 62
    7
 10
29142.185
 20
31118.321
 11
29142.185
 21
31249.7
  0
LINE
  8
0-0
  6
CONTINUOUS
 62
    7
 10
29156.131
 20
31117.012
 11
29156.131
 21
31249.7
  0
LINE
  8
0-0
  6
CONTINUOUS
 62
    7
 10
29294.841
 20
31028.384
 11
29286.634
 21
31086.35
  0
LINE
  8
0-0
  6
CONTINUOUS
 62
    7
 10
29286.634
 20
31086.35
 11
29265.028
 21
31131.556
  0
LINE
  8
0-0
  6
CONTINUOUS
 62
    7
 10
29265.028
 20
31131.556
 11
29229.96
 21
31163.92
  0
LINE
  8
0-0
  6
CONTINUOUS
 62
    7
 10
29229.96
 20
31163.92
 11
29193.26
 21
31173.62
  0
LINE
  8
0-0
  6
CONTINUOUS
 62
    7
 10
29193.26
 20
31173.62
 11
29170.003
 21
31173.62
  0
LINE
  8
0-0
  6
CONTINUOUS
 62
    7
 10
29231.989
 20
31028.384
 11
29294.841
 21
31028.384
  0
LINE
  8
0-0
  6
CONTINUOUS
 62
    7
 10
29219.122
 20
31169.092
 11
29219.122
 21
31249.7
  0
LINE
  8
0-0
  6
CONTINUOUS
 62
    7
 10
29162.489
 20
31115.34
 11
29166.741
 21
31173.55
  0
LINE
  8
0-0
  6
CONTINUOUS
 62
    7
 10
29270.631
 20
31028.384
 11
29262.173
 21
31087.204
  0
LINE
  8
0-0
  6
CONTINUOUS
 62
    7
 10
29262.173
 20
31087.204
 11
29239.996
 21
31132.718
  0
LINE
  8
0-0
  6
CONTINUOUS
 62
    7
 10
29239.996
 20
31132.718
 11
29204.137
 21
31164.753
  0
LINE
  8
0-0
  6
CONTINUOUS
 62
    7
 10
29204.137
 20
31164.753
 11
29166.741
 21
31173.55
  0
LINE
  8
0-0
  6
CONTINUOUS
 62
    7
 10
29142.185
 20
31167.965
 11
29109.472
 21
31144.469
  0
LINE
  8
0-0
  6
CONTINUOUS
 62
    7
 10
29109.472
 20
31144.469
 11
29082.113
 21
31099.2
  0
LINE
  8
0-0
  6
CONTINUOUS
 62
    7
 10
29541.563
 20
30558.82
 11
29541.563
 21
30811.631
  0
LINE
  8
0-0
  6
CONTINUOUS
 62
    7
 10
29772.17
 20
30700.179
 11
29844.172
 21
30455.396
  0
LINE
  8
0-0
  6
CONTINUOUS
 62
    7
 10
29704.972
 20
30434.301
 11
29651.013
 21
30536.927
  0
LINE
  8
0-0
  6
CONTINUOUS
 62
    7
 10
29672.182
 20
30558.82
 11
29732.853
 21
30604.328
  0
LINE
  8
0-0
  6
CONTINUOUS
 62
    7
 10
29672.182
 20
30558.82
 11
29672.182
 21
30541.966
  0
LINE
  8
0-0
  6
CONTINUOUS
 62
    7
 10
29672.182
 20
30811.631
 11
29732.853
 21
30766.124
  0
LINE
  8
0-0
  6
CONTINUOUS
 62
    7
 10
29672.182
 20
30811.631
 11
29672.182
 21
30828.478
  0
LINE
  8
0-0
  6
CONTINUOUS
 62
    7
 10
18538.244
 20
33176.843
 11
18676.993
 21
33176.843
  0
LINE
  8
0-0
  6
CONTINUOUS
 62
    7
 10
18676.993
 20
33561.837
 11
18676.993
 21
33176.843
  0
LINE
  8
0-0
  6
CONTINUOUS
 62
    7
 10
18676.993
 20
33561.837
 11
18716.992
 21
33561.837
  0
LINE
  8
0-0
  6
CONTINUOUS
 62
    7
 10
18716.992
 20
33561.837
 11
18716.992
 21
33276.837
  0
LINE
  8
0-0
  6
CONTINUOUS
 62
    7
 10
18716.992
 20
33276.837
 11
18943.26
 21
33276.837
  0
LINE
  8
0-0
  6
CONTINUOUS
 62
    7
 10
18943.26
 20
33276.837
 11
19014.489
 21
33350.096
  0
LINE
  8
0-0
  6
CONTINUOUS
 62
    7
 10
18538.244
 20
33176.843
 11
18379.496
 21
33374.117
  0
LINE
  8
0-0
  6
CONTINUOUS
 62
    7
 10
18251.369
 20
34236.836
 11
18251.369
 21
34174.657
  0
LINE
  8
0-0
  6
CONTINUOUS
 62
    7
 10
18251.369
 20
34174.657
 11
18696.992
 21
34174.657
  0
LINE
  8
0-0
  6
CONTINUOUS
 62
    7
 10
19142.616
 20
34236.836
 11
19142.616
 21
34174.657
  0
LINE
  8
0-0
  6
CONTINUOUS
 62
    7
 10
19142.616
 20
34174.657
 11
18696.992
 21
34174.657
  0
LINE
  8
0-0
  6
CONTINUOUS
 62
    7
 10
18379.496
 20
34174.657
 11
18379.496
 21
33374.117
  0
LINE
  8
0-0
  6
CONTINUOUS
 62
    7
 10
19014.489
 20
33914.342
 11
19014.489
 21
33350.096
  0
LINE
  8
0-0
  6
CONTINUOUS
 62
    7
 10
18913.055
 20
34174.657
 11
19014.489
 21
33914.342
  0
LINE
  8
0-0
  6
CONTINUOUS
 62
    7
 10
18256.342
 20
34632.343
 11
19253.722
 21
34632.343
  0
LINE
  8
0-0
  6
CONTINUOUS
 62
    7
 10
18251.369
 20
34236.836
 11
18166.943
 21
34339.231
  0
LINE
  8
0-0
  6
CONTINUOUS
 62
    7
 10
19142.616
 20
34236.836
 11
19227.042
 21
34339.231
  0
LINE
  8
0-0
  6
CONTINUOUS
 62
    7
 10
18011.996
 20
34339.231
 11
19381.989
 21
34339.231
  0
LINE
  8
0-0
  6
CONTINUOUS
 62
    7
 10
18251.369
 20
34236.836
 11
19142.616
 21
34236.836
  0
LINE
  8
0-0
  6
CONTINUOUS
 62
    7
 10
18101.754
 20
34867.846
 11
18101.754
 21
34528.737
  0
LINE
  8
0-0
  6
CONTINUOUS
 62
    7
 10
18101.754
 20
34528.737
 11
18156.613
 21
34528.737
  0
LINE
  8
0-0
  6
CONTINUOUS
 62
    7
 10
18156.613
 20
34528.737
 11
18156.613
 21
34867.846
  0
LINE
  8
0-0
  6
CONTINUOUS
 62
    7
 10
18156.613
 20
34867.846
 11
18101.754
 21
34867.846
  0
LINE
  8
0-0
  6
CONTINUOUS
 62
    7
 10
18500.709
 20
34693.298
 11
18500.709
 21
34528.737
  0
LINE
  8
0-0
  6
CONTINUOUS
 62
    7
 10
18196.511
 20
35027.836
 11
18196.511
 21
34339.231
  0
LINE
  8
0-0
  6
CONTINUOUS
 62
    7
 10
19292.227
 20
34867.846
 11
19292.227
 21
34528.737
  0
LINE
  8
0-0
  6
CONTINUOUS
 62
    7
 10
19292.227
 20
34528.737
 11
19237.372
 21
34528.737
  0
LINE
  8
0-0
  6
CONTINUOUS
 62
    7
 10
19237.372
 20
34528.737
 11
19237.372
 21
34867.846
  0
LINE
  8
0-0
  6
CONTINUOUS
 62
    7
 10
19237.372
 20
34867.846
 11
19292.227
 21
34867.846
  0
LINE
  8
0-0
  6
CONTINUOUS
 62
    7
 10
18893.276
 20
34693.298
 11
18893.276
 21
34528.737
  0
LINE
  8
0-0
  6
CONTINUOUS
 62
    7
 10
19197.474
 20
35027.836
 11
19197.474
 21
34339.231
  0
LINE
  8
0-0
  6
CONTINUOUS
 62
    7
 10
18537.87
 20
35447.98
 11
18734.154
 21
34632.343
  0
LINE
  8
0-0
  6
CONTINUOUS
 62
    7
 10
19052.399
 20
34632.343
 11
18856.115
 21
35447.98
  0
LINE
  8
0-0
  6
CONTINUOUS
 62
    7
 10
18418.281
 20
35447.98
 11
18418.281
 21
35027.836
  0
LINE
  8
0-0
  6
CONTINUOUS
 62
    7
 10
18975.704
 20
35447.98
 11
18975.704
 21
35027.836
  0
LINE
  8
0-0
  6
CONTINUOUS
 62
    7
 10
18174.369
 20
35082.275
 11
18028.09
 21
35082.275
  0
LINE
  8
0-0
  6
CONTINUOUS
 62
    7
 10
18376.938
 20
36213.861
 11
18530.951
 21
36279.967
  0
LINE
  8
0-0
  6
CONTINUOUS
 62
    7
 10
18503.526
 20
36023.971
 11
18210.957
 21
35828.943
  0
LINE
  8
0-0
  6
CONTINUOUS
 62
    7
 10
18210.957
 20
35658.265
 11
18210.957
 21
35828.943
  0
LINE
  8
0-0
  6
CONTINUOUS
 62
    7
 10
18530.951
 20
36279.967
 11
18696.992
 21
36279.967
  0
LINE
  8
0-0
  6
CONTINUOUS
 62
    7
 10
18503.526
 20
36023.971
 11
18696.992
 21
36023.971
  0
LINE
  8
0-0
  6
CONTINUOUS
 62
    7
 10
18028.09
 20
35082.275
 11
18028.09
 21
35027.836
  0
LINE
  8
0-0
  6
CONTINUOUS
 62
    7
 10
18174.369
 20
35027.836
 11
18174.369
 21
35082.275
  0
LINE
  8
0-0
  6
CONTINUOUS
 62
    7
 10
18156.098
 20
35658.265
 11
18156.098
 21
35082.275
  0
LINE
  8
0-0
  6
CONTINUOUS
 62
    7
 10
18376.938
 20
36213.861
 11
18011.996
 21
35970.575
  0
LINE
  8
0-0
  6
CONTINUOUS
 62
    7
 10
18011.996
 20
35658.265
 11
18210.957
 21
35658.265
  0
LINE
  8
0-0
  6
CONTINUOUS
 62
    7
 10
18055.519
 20
35082.275
 11
18055.519
 21
35658.265
  0
LINE
  8
0-0
  6
CONTINUOUS
 62
    7
 10
18011.996
 20
35027.836
 11
18011.996
 21
34339.231
  0
LINE
  8
0-0
  6
CONTINUOUS
 62
    7
 10
18011.996
 20
35970.575
 11
18011.996
 21
35658.265
  0
LINE
  8
0-0
  6
CONTINUOUS
 62
    7
 10
19219.616
 20
35082.275
 11
19365.895
 21
35082.275
  0
LINE
  8
0-0
  6
CONTINUOUS
 62
    7
 10
19017.047
 20
36213.861
 11
18863.033
 21
36279.967
  0
LINE
  8
0-0
  6
CONTINUOUS
 62
    7
 10
18890.459
 20
36023.971
 11
19183.028
 21
35828.943
  0
LINE
  8
0-0
  6
CONTINUOUS
 62
    7
 10
19183.028
 20
35658.265
 11
19183.028
 21
35828.943
  0
LINE
  8
0-0
  6
CONTINUOUS
 62
    7
 10
18863.033
 20
36279.967
 11
18696.992
 21
36279.967
  0
LINE
  8
0-0
  6
CONTINUOUS
 62
    7
 10
18890.459
 20
36023.971
 11
18696.992
 21
36023.971
  0
LINE
  8
0-0
  6
CONTINUOUS
 62
    7
 10
19365.895
 20
35082.275
 11
19365.895
 21
35027.836
  0
LINE
  8
0-0
  6
CONTINUOUS
 62
    7
 10
19219.616
 20
35027.836
 11
19219.616
 21
35082.275
  0
LINE
  8
0-0
  6
CONTINUOUS
 62
    7
 10
19237.887
 20
35658.265
 11
19237.887
 21
35082.275
  0
LINE
  8
0-0
  6
CONTINUOUS
 62
    7
 10
19017.047
 20
36213.861
 11
19381.989
 21
35970.575
  0
LINE
  8
0-0
  6
CONTINUOUS
 62
    7
 10
19381.989
 20
35658.265
 11
19183.028
 21
35658.265
  0
LINE
  8
0-0
  6
CONTINUOUS
 62
    7
 10
19338.466
 20
35082.275
 11
19338.466
 21
35658.265
  0
LINE
  8
0-0
  6
CONTINUOUS
 62
    7
 10
19381.989
 20
35027.836
 11
19381.989
 21
34339.231
  0
LINE
  8
0-0
  6
CONTINUOUS
 62
    7
 10
19381.989
 20
35970.575
 11
19381.989
 21
35658.265
  0
LINE
  8
0-0
  6
CONTINUOUS
 62
    7
 10
18028.09
 20
35027.836
 11
18638.981
 21
35027.836
  0
LINE
  8
0-0
  6
CONTINUOUS
 62
    7
 10
18957.233
 20
35027.836
 11
19381.989
 21
35027.836
  0
LINE
  8
0-0
  6
CONTINUOUS
 62
    7
 10
18696.992
 20
36492.842
 11
18696.992
 21
36279.967
  0
LINE
  8
ADD_LINE
  6
DOT
 62
    7
 10
18696.992
 20
36947.378
 11
18696.992
 21
36023.971
  0
LINE
  8
0-0
  6
CONTINUOUS
 62
    7
 10
10005.219
 20
31735.83
 11
10723.868
 21
30818.336
  0
LINE
  8
0-0
  6
CONTINUOUS
 62
    7
 10
11057.214
 20
31725.352
 11
10784.604
 21
32015.426
  0
LINE
  8
0-0
  6
CONTINUOUS
 62
    7
 10
10784.604
 20
32015.426
 11
10669.267
 21
32354.438
  0
LINE
  8
0-0
  6
CONTINUOUS
 62
    7
 10
10005.219
 20
31735.83
 11
10005.219
 21
31925.538
  0
LINE
  8
0-0
  6
CONTINUOUS
 62
    7
 10
10323.852
 20
31980.046
 11
10005.219
 21
31925.538
  0
LINE
  8
0-0
  6
CONTINUOUS
 62
    7
 10
10412.227
 20
32071.461
 11
10323.852
 21
31980.046
  0
LINE
  8
0-0
  6
CONTINUOUS
 62
    7
 10
10412.227
 20
32071.461
 11
10508.502
 21
32354.438
  0
LINE
  8
0-0
  6
CONTINUOUS
 62
    7
 10
10508.502
 20
32354.438
 11
10669.267
 21
32354.438
  0
LINE
  8
0-0
  6
CONTINUOUS
 62
    7
 10
11057.214
 20
31725.352
 11
11210.993
 21
31676.779
  0
LINE
  8
0-0
  6
CONTINUOUS
 62
    7
 10
11210.993
 20
31543.609
 11
11210.993
 21
31676.779
  0
LINE
  8
0-0
  6
CONTINUOUS
 62
    7
 10
11046.733
 20
31369.481
 11
11210.993
 21
31543.609
  0
LINE
  8
0-0
  6
CONTINUOUS
 62
    7
 10
11046.733
 20
30973.925
 11
11046.733
 21
31369.481
  0
LINE
  8
0-0
  6
CONTINUOUS
 62
    7
 10
10932.514
 20
31091.004
 11
10747.661
 21
31013.854
  0
LINE
  8
0-0
  6
CONTINUOUS
 62
    7
 10
8474.2201
 20
24996.875
 11
8924.0098
 21
25476.881
  0
LINE
  8
0-0
  6
CONTINUOUS
 62
    7
 10
8924.0098
 20
25476.881
 11
9567.7702
 21
25672.486
  0
LINE
  8
0-0
  6
CONTINUOUS
 62
    7
 10
8474.2201
 20
24996.875
 11
8639.4545
 21
24765.313
  0
LINE
  8
0-0
  6
CONTINUOUS
 62
    7
 10
8639.4545
 20
24765.313
 11
8898.3462
 21
24722.962
  0
LINE
  8
0-0
  6
CONTINUOUS
 62
    7
 10
8898.3462
 20
24722.962
 11
9105.5082
 21
24746.814
  0
LINE
  8
0-0
  6
CONTINUOUS
 62
    7
 10
10627.613
 20
26127.002
 11
10822.161
 21
26029.355
  0
LINE
  8
0-0
  6
CONTINUOUS
 62
    7
 10
10822.161
 20
26029.355
 11
10913.144
 21
25881.603
  0
LINE
  8
0-0
  6
CONTINUOUS
 62
    7
 10
10913.144
 20
25881.603
 11
10914.401
 21
25709.581
  0
LINE
  8
0-0
  6
CONTINUOUS
 62
    7
 10
10914.401
 20
25709.581
 11
10804.068
 21
25583.466
  0
LINE
  8
0-0
  6
CONTINUOUS
 62
    7
 10
10804.068
 20
25583.466
 11
10627.816
 21
25508.849
  0
LINE
  8
0-0
  6
CONTINUOUS
 62
    7
 10
10627.816
 20
25508.849
 11
10478.497
 21
25534.731
  0
LINE
  8
0-0
  6
CONTINUOUS
 62
    7
 10
10478.497
 20
25534.731
 11
9580.1112
 21
25854.019
  0
LINE
  8
0-0
  6
CONTINUOUS
 62
    7
 10
9580.1112
 20
25854.019
 11
9149.9624
 21
25801.205
  0
LINE
  8
0-0
  6
CONTINUOUS
 62
    7
 10
9149.9624
 20
25801.205
 11
9087.9249
 21
26306.436
  0
LINE
  8
0-0
  6
CONTINUOUS
 62
    7
 10
8732.3874
 20
27538.727
 11
9323.3
 21
26368.275
  0
LINE
  8
0-0
  6
CONTINUOUS
 62
    7
 10
9124.2236
 20
25924.804
 11
8022.2851
 21
25789.506
  0
LINE
  8
0-0
  6
CONTINUOUS
 62
    7
 10
7949.2959
 20
26460.148
 11
8059.6388
 21
26765.952
  0
LINE
  8
0-0
  6
CONTINUOUS
 62
    7
 10
8059.6388
 20
26765.952
 11
8247.5151
 21
27042.55
  0
LINE
  8
0-0
  6
CONTINUOUS
 62
    7
 10
9090.1769
 20
26288.105
 11
8536.1193
 21
27387.856
  0
LINE
  8
0-0
  6
CONTINUOUS
 62
    7
 10
8732.3874
 20
27538.727
 11
8536.1193
 21
27387.856
  0
LINE
  8
0-0
  6
CONTINUOUS
 62
    7
 10
9036.9179
 20
27571.587
 11
9134.5366
 21
27477.619
  0
LINE
  8
0-0
  6
CONTINUOUS
 62
    7
 10
9134.5366
 20
27477.619
 11
9171.7276
 21
27336.508
  0
LINE
  8
0-0
  6
CONTINUOUS
 62
    7
 10
9171.7276
 20
27336.508
 11
9134.7606
 21
27206.148
  0
LINE
  8
0-0
  6
CONTINUOUS
 62
    7
 10
9134.7606
 20
27206.148
 11
8953.1939
 21
27101.373
  0
LINE
  8
0-0
  6
CONTINUOUS
 62
    7
 10
8755.1919
 20
27493.556
 11
8877.9476
 21
27571.934
  0
LINE
  8
0-0
  6
CONTINUOUS
 62
    7
 10
8247.5151
 20
27042.55
 11
8598.7605
 21
27263.515
  0
LINE
  8
0-0
  6
CONTINUOUS
 62
    7
 10
8718.2599
 20
27022.882
 11
8445.6693
 21
26862.651
  0
LINE
  8
0-0
  6
CONTINUOUS
 62
    7
 10
8445.6693
 20
26862.651
 11
8243.9823
 21
26612.53
  0
LINE
  8
0-0
  6
CONTINUOUS
 62
    7
 10
8243.9823
 20
26612.53
 11
8186.6446
 21
26362.515
  0
LINE
  8
0-0
  6
CONTINUOUS
 62
    7
 10
8186.6446
 20
26362.515
 11
8262.1132
 21
25818.951
  0
LINE
  8
0-0
  6
CONTINUOUS
 62
    7
 10
9335.641
 20
26267.749
 11
10571.568
 21
26268.014
  0
LINE
  8
0-0
  6
CONTINUOUS
 62
    7
 10
10571.568
 20
26268.014
 11
10588.934
 21
26126.606
  0
LINE
  8
0-0
  6
CONTINUOUS
 62
    7
 10
9323.3
 20
26368.275
 11
9408.9084
 21
25671.02
  0
LINE
  8
0-0
  6
CONTINUOUS
 62
    7
 10
8022.2851
 20
25789.506
 11
8006.0229
 21
25498.764
  0
LINE
  8
0-0
  6
CONTINUOUS
 62
    7
 10
12476.955
 20
27484.38
 11
11886.044
 21
26313.928
  0
LINE
  8
0-0
  6
CONTINUOUS
 62
    7
 10
13187.052
 20
25735.159
 11
13260.041
 21
26405.801
  0
LINE
  8
0-0
  6
CONTINUOUS
 62
    7
 10
13260.041
 20
26405.801
 11
13149.698
 21
26711.605
  0
LINE
  8
0-0
  6
CONTINUOUS
 62
    7
 10
13149.698
 20
26711.605
 11
12961.822
 21
26988.202
  0
LINE
  8
0-0
  6
CONTINUOUS
 62
    7
 10
12119.165
 20
26233.758
 11
12673.223
 21
27333.509
  0
LINE
  8
0-0
  6
CONTINUOUS
 62
    7
 10
12476.955
 20
27484.38
 11
12673.223
 21
27333.509
  0
LINE
  8
0-0
  6
CONTINUOUS
 62
    7
 10
12331.394
 20
27517.587
 11
12172.424
 21
27517.24
  0
LINE
  8
0-0
  6
CONTINUOUS
 62
    7
 10
12172.424
 20
27517.24
 11
12074.805
 21
27423.271
  0
LINE
  8
0-0
  6
CONTINUOUS
 62
    7
 10
12074.805
 20
27423.271
 11
12037.609
 21
27282.161
  0
LINE
  8
0-0
  6
CONTINUOUS
 62
    7
 10
12037.609
 20
27282.161
 11
12074.581
 21
27151.801
  0
LINE
  8
0-0
  6
CONTINUOUS
 62
    7
 10
12074.581
 20
27151.801
 11
12256.148
 21
27047.026
  0
LINE
  8
0-0
  6
CONTINUOUS
 62
    7
 10
12454.145
 20
27439.208
 11
12331.394
 21
27517.587
  0
LINE
  8
0-0
  6
CONTINUOUS
 62
    7
 10
12961.822
 20
26988.202
 11
12610.582
 21
27209.168
  0
LINE
  8
0-0
  6
CONTINUOUS
 62
    7
 10
12491.082
 20
26968.535
 11
12763.673
 21
26808.303
  0
LINE
  8
0-0
  6
CONTINUOUS
 62
    7
 10
12763.673
 20
26808.303
 11
12965.361
 21
26558.183
  0
LINE
  8
0-0
  6
CONTINUOUS
 62
    7
 10
12965.361
 20
26558.183
 11
13022.697
 21
26308.168
  0
LINE
  8
0-0
  6
CONTINUOUS
 62
    7
 10
13022.697
 20
26308.168
 11
12947.229
 21
25764.604
  0
LINE
  8
0-0
  6
CONTINUOUS
 62
    7
 10
11872.285
 20
26201.898
 11
10636.358
 21
26202.164
  0
LINE
  8
0-0
  6
CONTINUOUS
 62
    7
 10
11428.942
 20
26201.996
 11
12212.178
 21
27072.393
  0
LINE
  8
0-0
  6
CONTINUOUS
 62
    7
 10
12074.711
 20
25871.734
 11
13187.052
 21
25735.159
  0
LINE
  8
0-0
  6
CONTINUOUS
 62
    7
 10
12074.711
 20
25871.734
 11
12121.412
 21
26252.088
  0
LINE
  8
0-0
  6
CONTINUOUS
 62
    7
 10
10627.613
 20
26127.002
 11
9111.8965
 21
26111.216
  0
LINE
  8
0-0
  6
CONTINUOUS
 62
    7
 10
10473.547
 20
31637.97
 11
10658.4
 21
31560.82
  0
LINE
  8
0-0
  6
CONTINUOUS
 62
    7
 10
10577.783
 20
31627.688
 11
10555.192
 21
31573.558
  0
LINE
  8
0-0
  6
CONTINUOUS
 62
    7
 10
9875.5553
 20
25490.648
 11
9863.3017
 21
25527.04
  0
LINE
  8
0-0
  6
CONTINUOUS
 62
    7
 10
8006.0229
 20
25498.764
 11
9408.9084
 21
25671.02
  0
LINE
  8
0-0
  6
CONTINUOUS
 62
    7
 10
10588.884
 20
32571.981
 11
10588.884
 21
32731.159
  0
LINE
  8
0-0
  6
CONTINUOUS
 62
    7
 10
10553.936
 20
32644.526
 11
10588.884
 21
32644.526
  0
LINE
  8
0-0
  6
CONTINUOUS
 62
    7
 10
10552.669
 20
32354.438
 11
10552.669
 21
32644.526
  0
LINE
  8
0-0
  6
CONTINUOUS
 62
    7
 10
10623.833
 20
32644.526
 11
10588.884
 21
32644.526
  0
LINE
  8
0-0
  6
CONTINUOUS
 62
    7
 10
10625.1
 20
32354.438
 11
10625.1
 21
32644.526
  0
LINE
  8
0-0
  6
CONTINUOUS
 62
    7
 10
15035.669
 20
31921.388
 11
15754.321
 21
31003.894
  0
LINE
  8
0-0
  6
CONTINUOUS
 62
    7
 10
16087.666
 20
31910.91
 11
15815.055
 21
32200.998
  0
LINE
  8
0-0
  6
CONTINUOUS
 62
    7
 10
15815.055
 20
32200.998
 11
15699.718
 21
32540.009
  0
LINE
  8
0-0
  6
CONTINUOUS
 62
    7
 10
15035.669
 20
31921.388
 11
15035.669
 21
32111.096
  0
LINE
  8
0-0
  6
CONTINUOUS
 62
    7
 10
15354.303
 20
32165.604
 11
15035.669
 21
32111.096
  0
LINE
  8
0-0
  6
CONTINUOUS
 62
    7
 10
15442.672
 20
32257.025
 11
15354.303
 21
32165.604
  0
LINE
  8
0-0
  6
CONTINUOUS
 62
    7
 10
15442.672
 20
32257.025
 11
15538.947
 21
32540.009
  0
LINE
  8
0-0
  6
CONTINUOUS
 62
    7
 10
15538.947
 20
32540.009
 11
15699.718
 21
32540.009
  0
LINE
  8
0-0
  6
CONTINUOUS
 62
    7
 10
16087.666
 20
31910.91
 11
16241.445
 21
31862.344
  0
LINE
  8
0-0
  6
CONTINUOUS
 62
    7
 10
16241.445
 20
31729.167
 11
16241.445
 21
31862.344
  0
LINE
  8
0-0
  6
CONTINUOUS
 62
    7
 10
16077.185
 20
31555.052
 11
16241.445
 21
31729.167
  0
LINE
  8
0-0
  6
CONTINUOUS
 62
    7
 10
16077.185
 20
31159.482
 11
16077.185
 21
31555.052
  0
LINE
  8
0-0
  6
CONTINUOUS
 62
    7
 10
15962.965
 20
31276.576
 11
15778.114
 21
31199.412
  0
LINE
  8
0-0
  6
CONTINUOUS
 62
    7
 10
14598.794
 20
31072.107
 11
15130.033
 21
30684.172
  0
LINE
  8
0-0
  6
CONTINUOUS
 62
    7
 10
15130.033
 20
30684.172
 11
15402.648
 21
30069.043
  0
LINE
  8
0-0
  6
CONTINUOUS
 62
    7
 10
15402.648
 20
30069.043
 11
15884.957
 21
29258.206
  0
LINE
  8
0-0
  6
CONTINUOUS
 62
    7
 10
14598.794
 20
31072.107
 11
14389.095
 21
30879.886
  0
LINE
  8
0-0
  6
CONTINUOUS
 62
    7
 10
14389.095
 20
30879.886
 11
14378.612
 21
30617.759
  0
LINE
  8
0-0
  6
CONTINUOUS
 62
    7
 10
14378.612
 20
30617.759
 11
14427.537
 21
30415.053
  0
LINE
  8
0-0
  6
CONTINUOUS
 62
    7
 10
14427.537
 20
30415.053
 11
15232.096
 21
29072.974
  0
LINE
  8
0-0
  6
CONTINUOUS
 62
    7
 10
15381.676
 20
30124.965
 11
15566.908
 21
30212.341
  0
LINE
  8
0-0
  6
CONTINUOUS
 62
    7
 10
15566.908
 20
30212.341
 11
15692.726
 21
30148.146
  0
LINE
  8
0-0
  6
CONTINUOUS
 62
    7
 10
15315.273
 20
29111.416
 11
15435.904
 21
29292.61
  0
LINE
  8
0-0
  6
CONTINUOUS
 62
    7
 10
15435.904
 20
29292.61
 11
15593.641
 21
29364.915
  0
LINE
  8
0-0
  6
CONTINUOUS
 62
    7
 10
15593.641
 20
29364.915
 11
15764.532
 21
29345.186
  0
LINE
  8
0-0
  6
CONTINUOUS
 62
    7
 10
15764.532
 20
29345.186
 11
15876.268
 21
29220.31
  0
LINE
  8
0-0
  6
CONTINUOUS
 62
    7
 10
15876.268
 20
29220.31
 11
15928.845
 21
29036.281
  0
LINE
  8
0-0
  6
CONTINUOUS
 62
    7
 10
15928.845
 20
29036.281
 11
15884.957
 21
28891.223
  0
LINE
  8
0-0
  6
CONTINUOUS
 62
    7
 10
15884.957
 20
28891.223
 11
15458.564
 21
28038.446
  0
LINE
  8
0-0
  6
CONTINUOUS
 62
    7
 10
15458.564
 20
28038.446
 11
15458.564
 21
27605.071
  0
LINE
  8
0-0
  6
CONTINUOUS
 62
    7
 10
15458.564
 20
27605.071
 11
14949.532
 21
27605.071
  0
LINE
  8
0-0
  6
CONTINUOUS
 62
    7
 10
13683.105
 20
27402.358
 11
14916.84
 21
27846.225
  0
LINE
  8
0-0
  6
CONTINUOUS
 62
    7
 10
15332.746
 20
27594.59
 11
15332.746
 21
26484.375
  0
LINE
  8
0-0
  6
CONTINUOUS
 62
    7
 10
15332.746
 20
26484.375
 11
14658.211
 21
26493.659
  0
LINE
  8
0-0
  6
CONTINUOUS
 62
    7
 10
14658.211
 20
26493.659
 11
14368.126
 21
26640.449
  0
LINE
  8
0-0
  6
CONTINUOUS
 62
    7
 10
14368.126
 20
26640.449
 11
14116.485
 21
26860.631
  0
LINE
  8
0-0
  6
CONTINUOUS
 62
    7
 10
14968.006
 20
27605.071
 11
13808.928
 21
27189.165
  0
LINE
  8
0-0
  6
CONTINUOUS
 62
    7
 10
13683.105
 20
27402.358
 11
13808.928
 21
27189.165
  0
LINE
  8
0-0
  6
CONTINUOUS
 62
    7
 10
13667.882
 20
27550.881
 11
13687.603
 21
27708.618
  0
LINE
  8
0-0
  6
CONTINUOUS
 62
    7
 10
13687.603
 20
27708.618
 11
13792.76
 21
27794.065
  0
LINE
  8
0-0
  6
CONTINUOUS
 62
    7
 10
13792.76
 20
27794.065
 11
13937.358
 21
27813.781
  0
LINE
  8
0-0
  6
CONTINUOUS
 62
    7
 10
13937.358
 20
27813.781
 11
14062.236
 21
27761.205
  0
LINE
  8
0-0
  6
CONTINUOUS
 62
    7
 10
14062.236
 20
27761.205
 11
14144.105
 21
27568.221
  0
LINE
  8
0-0
  6
CONTINUOUS
 62
    7
 10
13730.721
 20
27419.492
 11
13667.882
 21
27550.881
  0
LINE
  8
0-0
  6
CONTINUOUS
 62
    7
 10
14116.485
 20
26860.631
 11
13939.972
 21
27236.188
  0
LINE
  8
0-0
  6
CONTINUOUS
 62
    7
 10
14193.375
 20
27325.474
 11
14319.193
 21
27035.386
  0
LINE
  8
0-0
  6
CONTINUOUS
 62
    7
 10
14319.193
 20
27035.386
 11
14542.874
 21
26804.72
  0
LINE
  8
0-0
  6
CONTINUOUS
 62
    7
 10
14542.874
 20
26804.72
 11
14784.027
 21
26717.344
  0
LINE
  8
0-0
  6
CONTINUOUS
 62
    7
 10
14784.027
 20
26717.344
 11
15332.746
 21
26726.005
  0
LINE
  8
0-0
  6
CONTINUOUS
 62
    7
 10
15018.126
 20
27846.225
 11
15168.475
 21
29072.974
  0
LINE
  8
0-0
  6
CONTINUOUS
 62
    7
 10
15168.475
 20
29072.974
 11
15310.958
 21
29072.974
  0
LINE
  8
0-0
  6
CONTINUOUS
 62
    7
 10
14916.84
 20
27846.225
 11
15619.334
 21
27846.225
  0
LINE
  8
0-0
  6
CONTINUOUS
 62
    7
 10
15332.746
 20
26484.375
 11
15619.334
 21
26432.799
  0
LINE
  8
0-0
  6
CONTINUOUS
 62
    7
 10
17555.566
 20
27402.358
 11
16321.829
 21
27846.225
  0
LINE
  8
0-0
  6
CONTINUOUS
 62
    7
 10
15905.919
 20
26484.375
 11
16580.46
 21
26493.659
  0
LINE
  8
0-0
  6
CONTINUOUS
 62
    7
 10
16580.46
 20
26493.659
 11
16870.544
 21
26640.449
  0
LINE
  8
0-0
  6
CONTINUOUS
 62
    7
 10
16870.544
 20
26640.449
 11
17122.187
 21
26860.631
  0
LINE
  8
0-0
  6
CONTINUOUS
 62
    7
 10
16270.662
 20
27605.071
 11
17429.748
 21
27189.165
  0
LINE
  8
0-0
  6
CONTINUOUS
 62
    7
 10
17555.566
 20
27402.358
 11
17429.748
 21
27189.165
  0
LINE
  8
0-0
  6
CONTINUOUS
 62
    7
 10
17570.788
 20
27550.881
 11
17551.072
 21
27708.618
  0
LINE
  8
0-0
  6
CONTINUOUS
 62
    7
 10
17551.072
 20
27708.618
 11
17445.912
 21
27794.065
  0
LINE
  8
0-0
  6
CONTINUOUS
 62
    7
 10
17445.912
 20
27794.065
 11
17301.312
 21
27813.781
  0
LINE
  8
0-0
  6
CONTINUOUS
 62
    7
 10
17301.312
 20
27813.781
 11
17176.436
 21
27761.205
  0
LINE
  8
0-0
  6
CONTINUOUS
 62
    7
 10
17176.436
 20
27761.205
 11
17094.562
 21
27568.221
  0
LINE
  8
0-0
  6
CONTINUOUS
 62
    7
 10
17507.955
 20
27419.492
 11
17570.788
 21
27550.881
  0
LINE
  8
0-0
  6
CONTINUOUS
 62
    7
 10
17122.187
 20
26860.631
 11
17298.695
 21
27236.188
  0
LINE
  8
0-0
  6
CONTINUOUS
 62
    7
 10
17045.292
 20
27325.474
 11
16919.474
 21
27035.386
  0
LINE
  8
0-0
  6
CONTINUOUS
 62
    7
 10
16919.474
 20
27035.386
 11
16695.793
 21
26804.72
  0
LINE
  8
0-0
  6
CONTINUOUS
 62
    7
 10
16695.793
 20
26804.72
 11
16454.638
 21
26717.344
  0
LINE
  8
0-0
  6
CONTINUOUS
 62
    7
 10
16454.638
 20
26717.344
 11
15905.919
 21
26726.005
  0
LINE
  8
0-0
  6
CONTINUOUS
 62
    7
 10
16321.829
 20
27846.225
 11
15619.334
 21
27846.225
  0
LINE
  8
0-0
  6
CONTINUOUS
 62
    7
 10
15905.919
 20
26484.375
 11
15619.334
 21
26432.799
  0
LINE
  8
0-0
  6
CONTINUOUS
 62
    7
 10
16208.949
 20
27846.225
 11
16058.599
 21
29072.974
  0
LINE
  8
0-0
  6
CONTINUOUS
 62
    7
 10
15918.36
 20
29072.974
 11
16058.599
 21
29072.974
  0
LINE
  8
0-0
  6
CONTINUOUS
 62
    7
 10
15573.046
 20
28267.419
 11
15692.796
 21
28099.761
  0
LINE
  8
0-0
  6
CONTINUOUS
 62
    7
 10
15692.796
 20
28099.761
 11
15692.796
 21
27846.225
  0
LINE
  8
0-0
  6
CONTINUOUS
 62
    7
 10
16155.018
 20
28286.271
 11
17114.386
 21
27614.957
  0
LINE
  8
0-0
  6
CONTINUOUS
 62
    7
 10
15884.957
 20
29258.206
 11
17072.69
 21
28097.773
  0
LINE
  8
0-0
  6
CONTINUOUS
 62
    7
 10
15778.114
 20
31199.412
 11
17207.676
 21
27774.359
  0
LINE
  8
0-0
  6
CONTINUOUS
 62
    7
 10
17414.735
 20
27798.32
 11
15962.965
 21
31276.576
  0
LINE
  8
0-0
  6
CONTINUOUS
 62
    7
 10
15905.919
 20
27605.071
 11
15905.919
 21
26484.375
  0
LINE
  8
0-0
  6
CONTINUOUS
 62
    7
 10
15905.919
 20
27605.071
 11
16289.14
 21
27605.071
  0
LINE
  8
0-0
  6
CONTINUOUS
 62
    7
 10
15688.852
 20
31746.384
 11
14030.989
 21
27774.359
  0
LINE
  8
0-0
  6
CONTINUOUS
 62
    7
 10
13823.937
 20
27798.32
 11
15503.998
 21
31823.535
  0
LINE
  8
0-0
  6
CONTINUOUS
 62
    7
 10
15315.273
 20
29111.416
 11
15146.215
 21
27605.071
  0
LINE
  8
0-0
  6
CONTINUOUS
 62
    7
 10
15503.998
 20
31823.535
 11
15688.852
 21
31746.384
  0
LINE
  8
0-0
  6
CONTINUOUS
 62
    7
 10
15608.234
 20
31813.253
 11
15585.645
 21
31759.123
  0
LINE
  8
0-0
  6
CONTINUOUS
 62
    7
 10
15259.666
 20
29741.398
 11
15294.304
 21
29757.993
  0
LINE
  8
0-0
  6
CONTINUOUS
 62
    7
 10
15294.304
 20
29757.993
 11
15502.699
 21
29323.223
  0
LINE
  8
0-0
  6
CONTINUOUS
 62
    7
 10
15259.666
 20
29741.398
 11
15467.778
 21
29307.22
  0
LINE
  8
0-0
  6
CONTINUOUS
 62
    7
 10
15692.726
 20
30148.146
 11
15692.726
 21
29581.359
  0
LINE
  8
0-0
  6
CONTINUOUS
 62
    7
 10
15619.334
 20
26432.799
 11
15619.334
 21
27846.225
  0
LINE
  8
0-0
  6
CONTINUOUS
 62
    7
 10
15619.334
 20
32757.539
 11
15619.334
 21
32916.731
  0
LINE
  8
0-0
  6
CONTINUOUS
 62
    7
 10
15584.381
 20
32830.091
 11
15619.334
 21
32830.091
  0
LINE
  8
0-0
  6
CONTINUOUS
 62
    7
 10
15583.121
 20
32540.009
 11
15583.121
 21
32830.091
  0
LINE
  8
0-0
  6
CONTINUOUS
 62
    7
 10
15654.284
 20
32830.091
 11
15619.334
 21
32830.091
  0
LINE
  8
0-0
  6
CONTINUOUS
 62
    7
 10
15655.551
 20
32540.009
 11
15655.551
 21
32830.091
  0
LINE
  8
0-0
  6
CONTINUOUS
 62
    7
 10
8022.2851
 20
25789.506
 11
7949.2959
 21
26460.148
  0
LINE
  8
0-0
  6
CONTINUOUS
 62
    7
 10
15754.321
 20
31003.894
 11
15872.16
 21
30974.092
  0
LINE
  8
0-0
  6
CONTINUOUS
 62
    7
 10
16050.221
 20
31067.515
 11
16077.185
 21
31159.482
  0
LINE
  8
0-0
  6
CONTINUOUS
 62
    7
 10
9105.5082
 20
24746.814
 11
11401.714
 21
25766.374
  0
LINE
  8
0-0
  6
CONTINUOUS
 62
    7
 10
10627.133
 20
26127.002
 11
10636.358
 21
26202.164
  0
LINE
  8
0-0
  6
CONTINUOUS
 62
    7
 10
9567.7702
 20
25672.486
 11
9801.532
 21
25775.323
  0
LINE
  8
0-0
  6
CONTINUOUS
 62
    7
 10
10583.129
 20
26173.85
 11
12056.164
 21
27352.532
  0
LINE
  8
0-0
  6
CONTINUOUS
 62
    7
 10
9863.3017
 20
25527.04
 11
10190.304
 21
25637.162
  0
LINE
  8
0-0
  6
CONTINUOUS
 62
    7
 10
9875.5553
 20
25490.648
 11
10248.847
 21
25616.347
  0
LINE
  8
0-0
  6
CONTINUOUS
 62
    7
 10
9509.7099
 20
25658.492
 11
9450.4685
 21
25838.104
  0
LINE
  8
0-0
  6
CONTINUOUS
 62
    7
 10
13187.052
 20
25735.159
 11
13200.472
 21
25495.24
  0
LINE
  8
0-0
  6
CONTINUOUS
 62
    7
 10
11886.044
 20
26313.928
 11
11806.535
 21
25666.39
  0
LINE
  8
0-0
  6
CONTINUOUS
 62
    7
 10
13200.472
 20
25495.24
 11
11806.535
 21
25666.39
  0
LINE
  8
0-0
  6
CONTINUOUS
 62
    7
 10
11818.813
 20
25766.374
 11
11401.714
 21
25766.374
  0
LINE
  8
0-0
  6
CONTINUOUS
 62
    7
 10
8877.9476
 20
27571.934
 11
8912.9409
 21
27571.853
  0
LINE
  8
0-0
  6
CONTINUOUS
 62
    7
 10
8912.9409
 20
27571.853
 11
9036.9179
 21
27571.587
  0
LINE
  8
0-0
  6
CONTINUOUS
 62
    7
 10
10723.868
 20
30818.336
 11
10828.451
 21
30791.887
  0
LINE
  8
0-0
  6
CONTINUOUS
 62
    7
 10
11016.495
 20
30870.773
 11
11046.733
 21
30973.925
  0
LINE
  8
0-0
  6
CONTINUOUS
 62
    7
 10
10932.514
 20
31091.004
 11
12250.398
 21
27517.408
  0
LINE
  8
0-0
  6
CONTINUOUS
 62
    7
 10
10747.661
 20
31013.854
 11
12061.913
 21
27402.922
  0
LINE
  8
0-0
  6
CONTINUOUS
 62
    7
 10
10473.547
 20
31637.97
 11
8958.9489
 21
27571.755
  0
LINE
  8
0-0
  6
CONTINUOUS
 62
    7
 10
10658.4
 20
31560.82
 11
9146.3159
 21
27432.941
  0
LINE
  8
0-0
  6
CONTINUOUS
 62
    7
 10
18715.708
 20
22091.725
 11
18533.705
 21
21976.22
  0
LINE
  8
0-0
  6
CONTINUOUS
 62
    7
 10
18533.705
 20
21976.22
 11
18463.705
 21
21804.734
  0
LINE
  8
0-0
  6
CONTINUOUS
 62
    7
 10
18463.705
 20
21804.734
 11
19034.205
 21
21262.227
  0
LINE
  8
0-0
  6
CONTINUOUS
 62
    7
 10
19335.208
 20
21745.232
 11
19335.208
 21
22872.36
  0
LINE
  8
0-0
  6
CONTINUOUS
 62
    7
 10
18841.704
 20
21937.729
 11
18841.704
 21
22287.729
  0
LINE
  8
0-0
  6
CONTINUOUS
 62
    7
 10
18841.704
 20
21937.729
 11
18995.707
 21
21937.729
  0
LINE
  8
0-0
  6
CONTINUOUS
 62
    7
 10
18995.707
 20
22287.729
 11
18995.707
 21
21937.729
  0
LINE
  8
0-0
  6
CONTINUOUS
 62
    7
 10
18703.806
 20
17195.979
 11
18388.56
 21
17322.757
  0
LINE
  8
0-0
  6
CONTINUOUS
 62
    7
 10
18137.768
 20
17514.168
 11
18388.56
 21
17322.757
  0
LINE
  8
0-0
  6
CONTINUOUS
 62
    7
 10
18137.768
 20
17514.168
 11
18022.76
 21
17804.058
  0
LINE
  8
0-0
  6
CONTINUOUS
 62
    7
 10
17479.458
 20
18148.84
 11
17214.759
 21
17616.282
  0
LINE
  8
0-0
  6
CONTINUOUS
 62
    7
 10
17214.759
 20
17616.282
 11
17619.183
 21
17218.922
  0
LINE
  8
0-0
  6
CONTINUOUS
 62
    7
 10
17619.183
 20
17218.922
 11
17682.108
 21
16985.527
  0
LINE
  8
0-0
  6
CONTINUOUS
 62
    7
 10
16537.724
 20
16521.726
 11
17214.759
 21
17616.282
  0
LINE
  8
0-0
  6
CONTINUOUS
 62
    7
 10
16823.518
 20
16574.846
 11
18215.604
 21
16588.348
  0
LINE
  8
0-0
  6
CONTINUOUS
 62
    7
 10
17682.108
 20
16985.527
 11
17514.156
 21
16771.382
  0
LINE
  8
0-0
  6
CONTINUOUS
 62
    7
 10
18899.393
 20
17905.696
 11
18899.393
 21
17701.915
  0
LINE
  8
0-0
  6
CONTINUOUS
 62
    7
 10
18899.393
 20
17701.915
 11
18995.92
 21
17701.915
  0
LINE
  8
0-0
  6
CONTINUOUS
 62
    7
 10
18995.92
 20
17701.915
 11
18995.92
 21
17905.696
  0
LINE
  8
0-0
  6
CONTINUOUS
 62
    7
 10
18995.92
 20
17905.696
 11
18899.393
 21
17905.696
  0
LINE
  8
0-0
  6
CONTINUOUS
 62
    7
 10
19142.707
 20
21850.224
 11
19142.707
 21
22140.729
  0
LINE
  8
0-0
  6
CONTINUOUS
 62
    7
 10
19142.707
 20
22140.729
 11
19335.208
 21
22395.027
  0
LINE
  8
0-0
  6
CONTINUOUS
 62
    7
 10
18995.707
 20
22195.044
 11
19063.51
 21
22091.725
  0
LINE
  8
0-0
  6
CONTINUOUS
 62
    7
 10
18841.704
 20
22176.378
 11
18779.465
 21
22091.725
  0
LINE
  8
0-0
  6
CONTINUOUS
 62
    7
 10
19142.707
 20
21850.224
 11
19335.208
 21
21850.224
  0
LINE
  8
0-0
  6
CONTINUOUS
 62
    7
 10
18715.708
 20
22091.725
 11
19142.707
 21
22091.725
  0
LINE
  8
0-0
  6
CONTINUOUS
 62
    7
 10
19335.208
 20
22872.36
 11
19499.706
 21
22986.468
  0
LINE
  8
0-0
  6
CONTINUOUS
 62
    7
 10
19335.208
 20
21941.194
 11
19499.706
 21
21941.194
  0
LINE
  8
0-0
  6
CONTINUOUS
 62
    7
 10
19034.205
 20
21262.227
 11
19499.706
 21
21262.227
  0
LINE
  8
0-0
  6
CONTINUOUS
 62
    7
 10
19034.947
 20
18012.353
 11
19500.447
 21
18012.353
  0
LINE
  8
0-0
  6
CONTINUOUS
 62
    7
 10
19424.932
 20
16602.589
 11
19500.447
 21
16591.147
  0
LINE
  8
0-0
  6
CONTINUOUS
 62
    7
 10
18215.604
 20
16588.348
 11
18263.701
 21
16373.154
  0
LINE
  8
0-0
  6
CONTINUOUS
 62
    7
 10
17653.377
 20
16584.605
 11
17727.433
 21
16253.284
  0
LINE
  8
0-0
  6
CONTINUOUS
 62
    7
 10
16721.77
 20
16275.948
 11
16751.047
 21
16035.032
  0
LINE
  8
0-0
  6
CONTINUOUS
 62
    7
 10
17653.762
 20
16582.894
 11
17227.847
 21
16346.49
  0
LINE
  8
0-0
  6
CONTINUOUS
 62
    7
 10
17227.847
 20
16346.49
 11
16760.992
 21
16405.607
  0
LINE
  8
0-0
  6
CONTINUOUS
 62
    7
 10
16987.232
 20
17153.39
 11
16721.77
 21
16275.948
  0
LINE
  8
0-0
  6
CONTINUOUS
 62
    7
 10
17514.156
 20
16771.382
 11
17329.525
 21
16579.756
  0
LINE
  8
0-0
  6
CONTINUOUS
 62
    7
 10
17305.05
 20
17527.569
 11
16987.232
 21
17153.39
  0
LINE
  8
0-0
  6
CONTINUOUS
 62
    7
 10
17718.254
 20
18307.45
 11
17479.458
 21
18148.84
  0
LINE
  8
0-0
  6
CONTINUOUS
 62
    7
 10
18022.76
 20
17804.058
 11
17921.537
 21
18256.903
  0
LINE
  8
0-0
  6
CONTINUOUS
 62
    7
 10
17921.537
 20
18256.903
 11
17718.254
 21
18307.45
  0
LINE
  8
0-0
  6
CONTINUOUS
 62
    7
 10
17515.412
 20
18158.679
 11
18561.667
 21
21711.577
  0
LINE
  8
0-0
  6
CONTINUOUS
 62
    7
 10
18725.447
 20
21555.828
 11
17767.034
 21
18301.225
  0
LINE
  8
0-0
  6
CONTINUOUS
 62
    7
 10
17976.679
 20
18301.225
 11
18889.227
 21
21400.09
  0
LINE
  8
0-0
  6
CONTINUOUS
 62
    7
 10
19280.283
 20
17176.69
 11
19268.836
 21
17042.508
  0
LINE
  8
0-0
  6
CONTINUOUS
 62
    7
 10
19273.704
 20
16676.159
 11
19424.932
 21
16602.589
  0
LINE
  8
0-0
  6
CONTINUOUS
 62
    7
 10
19034.947
 20
18012.353
 11
19034.947
 21
17313.524
  0
LINE
  8
0-0
  6
CONTINUOUS
 62
    7
 10
19028.56
 20
17313.524
 11
19273.704
 21
16676.159
  0
LINE
  8
0-0
  6
CONTINUOUS
 62
    7
 10
19034.947
 20
17313.524
 11
18842.446
 21
17313.524
  0
LINE
  8
0-0
  6
CONTINUOUS
 62
    7
 10
18842.446
 20
18012.353
 11
18876.02
 21
18254.27
  0
LINE
  8
0-0
  6
CONTINUOUS
 62
    7
 10
18876.02
 20
18254.27
 11
19500.447
 21
18254.27
  0
LINE
  8
0-0
  6
CONTINUOUS
 62
    7
 10
18842.446
 20
17313.524
 11
18842.446
 21
18012.353
  0
LINE
  8
0-0
  6
CONTINUOUS
 62
    7
 10
19034.947
 20
18012.353
 11
18842.446
 21
18012.353
  0
LINE
  8
0-0
  6
CONTINUOUS
 62
    7
 10
19034.947
 20
18012.353
 11
19001.379
 21
18254.27
  0
LINE
  8
0-0
  6
CONTINUOUS
 62
    7
 10
20283.703
 20
22091.725
 11
20465.706
 21
21976.22
  0
LINE
  8
0-0
  6
CONTINUOUS
 62
    7
 10
20465.706
 20
21976.22
 11
20535.706
 21
21804.734
  0
LINE
  8
0-0
  6
CONTINUOUS
 62
    7
 10
20535.706
 20
21804.734
 11
19965.206
 21
21262.227
  0
LINE
  8
0-0
  6
CONTINUOUS
 62
    7
 10
19664.203
 20
21745.232
 11
19664.203
 21
22872.36
  0
LINE
  8
0-0
  6
CONTINUOUS
 62
    7
 10
20157.707
 20
21937.729
 11
20157.707
 21
22287.729
  0
LINE
  8
0-0
  6
CONTINUOUS
 62
    7
 10
20157.707
 20
21937.729
 11
20003.708
 21
21937.729
  0
LINE
  8
0-0
  6
CONTINUOUS
 62
    7
 10
20003.708
 20
22287.729
 11
20003.708
 21
21937.729
  0
LINE
  8
0-0
  6
CONTINUOUS
 62
    7
 10
20159.45
 20
17186.824
 11
19321.14
 21
17158.765
  0
LINE
  8
0-0
  6
CONTINUOUS
 62
    7
 10
19856.704
 20
21850.224
 11
19856.704
 21
22140.729
  0
LINE
  8
0-0
  6
CONTINUOUS
 62
    7
 10
19856.704
 20
22140.729
 11
19664.203
 21
22395.027
  0
LINE
  8
0-0
  6
CONTINUOUS
 62
    7
 10
20003.708
 20
22195.044
 11
19935.905
 21
22091.725
  0
LINE
  8
0-0
  6
CONTINUOUS
 62
    7
 10
20157.707
 20
22176.378
 11
20219.949
 21
22091.725
  0
LINE
  8
0-0
  6
CONTINUOUS
 62
    7
 10
19856.704
 20
21850.224
 11
19664.203
 21
21850.224
  0
LINE
  8
0-0
  6
CONTINUOUS
 62
    7
 10
20283.703
 20
22091.725
 11
19856.704
 21
22091.725
  0
LINE
  8
0-0
  6
CONTINUOUS
 62
    7
 10
19664.203
 20
22872.36
 11
19499.706
 21
22986.468
  0
LINE
  8
0-0
  6
CONTINUOUS
 62
    7
 10
19664.203
 20
21941.194
 11
19499.706
 21
21941.194
  0
LINE
  8
0-0
  6
CONTINUOUS
 62
    7
 10
19965.206
 20
21262.227
 11
19499.706
 21
21262.227
  0
LINE
  8
0-0
  6
CONTINUOUS
 62
    7
 10
19965.948
 20
18012.353
 11
19500.447
 21
18012.353
  0
LINE
  8
0-0
  6
CONTINUOUS
 62
    7
 10
19575.967
 20
16602.589
 11
19500.447
 21
16591.147
  0
LINE
  8
0-0
  6
CONTINUOUS
 62
    7
 10
21484.003
 20
18158.679
 11
20437.745
 21
21711.577
  0
LINE
  8
0-0
  6
CONTINUOUS
 62
    7
 10
20273.964
 20
21555.828
 11
21232.381
 21
18301.225
  0
LINE
  8
0-0
  6
CONTINUOUS
 62
    7
 10
21022.733
 20
18301.225
 11
20110.184
 21
21400.09
  0
LINE
  8
0-0
  6
CONTINUOUS
 62
    7
 10
19727.194
 20
16676.159
 11
19575.967
 21
16602.589
  0
LINE
  8
0-0
  6
CONTINUOUS
 62
    7
 10
19965.948
 20
18012.353
 11
19965.948
 21
17313.524
  0
LINE
  8
0-0
  6
CONTINUOUS
 62
    7
 10
19972.331
 20
17313.524
 11
19727.194
 21
16676.159
  0
LINE
  8
0-0
  6
CONTINUOUS
 62
    7
 10
19965.948
 20
17313.524
 11
20158.453
 21
17313.524
  0
LINE
  8
0-0
  6
CONTINUOUS
 62
    7
 10
20158.453
 20
18012.353
 11
20124.878
 21
18254.27
  0
LINE
  8
0-0
  6
CONTINUOUS
 62
    7
 10
20124.878
 20
18254.27
 11
19500.447
 21
18254.27
  0
LINE
  8
0-0
  6
CONTINUOUS
 62
    7
 10
20158.453
 20
17313.524
 11
20158.453
 21
18012.353
  0
LINE
  8
0-0
  6
CONTINUOUS
 62
    7
 10
19965.948
 20
18012.353
 11
20158.453
 21
18012.353
  0
LINE
  8
0-0
  6
CONTINUOUS
 62
    7
 10
19965.948
 20
18012.353
 11
19932.381
 21
18254.27
  0
LINE
  8
0-0
  6
CONTINUOUS
 62
    7
 10
19699.629
 20
18254.27
 11
19733.2
 21
18012.353
  0
LINE
  8
0-0
  6
CONTINUOUS
 62
    7
 10
19466.877
 20
18254.27
 11
19500.447
 21
18012.353
  0
LINE
  8
0-0
  6
CONTINUOUS
 62
    7
 10
19234.128
 20
18254.27
 11
19267.699
 21
18012.353
  0
LINE
  8
0-0
  6
CONTINUOUS
 62
    7
 10
19493.858
 20
16378.815
 11
20708.292
 21
16497.497
  0
LINE
  8
0-0
  6
CONTINUOUS
 62
    7
 10
20708.292
 20
16497.497
 11
20855.075
 21
17154.153
  0
LINE
  8
0-0
  6
CONTINUOUS
 62
    7
 10
20855.075
 20
17154.153
 11
19353.86
 21
17176.817
  0
LINE
  8
0-0
  6
CONTINUOUS
 62
    7
 10
19869.05
 20
16415.486
 11
19905.879
 21
17168.485
  0
LINE
  8
0-0
  6
CONTINUOUS
 62
    7
 10
19499.706
 20
18616.136
 11
19499.706
 21
16500.515
  0
LINE
  8
0-0
  6
CONTINUOUS
 62
    7
 10
19321.14
 20
17158.765
 11
19290.358
 21
17021.07
  0
LINE
  8
0-0
  6
CONTINUOUS
 62
    7
 10
19434.209
 20
16895.865
 11
19572.009
 21
16895.865
  0
LINE
  8
0-0
  6
CONTINUOUS
 62
    7
 10
19500.447
 20
16783.903
 11
19500.447
 21
16981.993
  0
LINE
  8
0-0
  6
CONTINUOUS
 62
    7
 10
25231.036
 20
22413.032
 11
25049.04
 21
22297.534
  0
LINE
  8
0-0
  6
CONTINUOUS
 62
    7
 10
25049.04
 20
22297.534
 11
24979.04
 21
22126.041
  0
LINE
  8
0-0
  6
CONTINUOUS
 62
    7
 10
24979.04
 20
22126.041
 11
25549.536
 21
21583.534
  0
LINE
  8
0-0
  6
CONTINUOUS
 62
    7
 10
25850.536
 20
22066.536
 11
25850.536
 21
23193.663
  0
LINE
  8
0-0
  6
CONTINUOUS
 62
    7
 10
25357.039
 20
22259.033
 11
25357.039
 21
22609.032
  0
LINE
  8
0-0
  6
CONTINUOUS
 62
    7
 10
25357.039
 20
22259.033
 11
25511.038
 21
22259.033
  0
LINE
  8
0-0
  6
CONTINUOUS
 62
    7
 10
25511.038
 20
22609.032
 11
25511.038
 21
22259.033
  0
LINE
  8
0-0
  6
CONTINUOUS
 62
    7
 10
25308.039
 20
19154.535
 11
25518.289
 21
19966.534
  0
LINE
  8
0-0
  6
CONTINUOUS
 62
    7
 10
25308.039
 20
19154.535
 11
25115.538
 21
18874.533
  0
LINE
  8
0-0
  6
CONTINUOUS
 62
    7
 10
24874.041
 20
18671.533
 11
25115.538
 21
18874.533
  0
LINE
  8
0-0
  6
CONTINUOUS
 62
    7
 10
24874.041
 20
18671.533
 11
24566.038
 21
18622.54
  0
LINE
  8
0-0
  6
CONTINUOUS
 62
    7
 10
24111.036
 20
18167.538
 11
24573.041
 21
17793.031
  0
LINE
  8
0-0
  6
CONTINUOUS
 62
    7
 10
24573.041
 20
17793.031
 11
25049.04
 21
18101.035
  0
LINE
  8
0-0
  6
CONTINUOUS
 62
    7
 10
25049.04
 20
18101.035
 11
25290.541
 21
18111.537
  0
LINE
  8
0-0
  6
CONTINUOUS
 62
    7
 10
25493.537
 20
16893.539
 11
24573.041
 21
17793.031
  0
LINE
  8
0-0
  6
CONTINUOUS
 62
    7
 10
25504.036
 20
17184.033
 11
25794.537
 21
18545.536
  0
LINE
  8
0-0
  6
CONTINUOUS
 62
    7
 10
25290.541
 20
18111.537
 11
25462.899
 21
17900.906
  0
LINE
  8
0-0
  6
CONTINUOUS
 62
    7
 10
25413.983
 20
20857.386
 11
25413.983
 21
20653.605
  0
LINE
  8
0-0
  6
CONTINUOUS
 62
    7
 10
25413.983
 20
20653.605
 11
25510.51
 21
20653.605
  0
LINE
  8
0-0
  6
CONTINUOUS
 62
    7
 10
25510.51
 20
20653.605
 11
25510.51
 21
20857.386
  0
LINE
  8
0-0
  6
CONTINUOUS
 62
    7
 10
25510.51
 20
20857.386
 11
25413.983
 21
20857.386
  0
LINE
  8
0-0
  6
CONTINUOUS
 62
    7
 10
25658.038
 20
22171.538
 11
25658.038
 21
22462.032
  0
LINE
  8
0-0
  6
CONTINUOUS
 62
    7
 10
25658.038
 20
22462.032
 11
25850.536
 21
22716.341
  0
LINE
  8
0-0
  6
CONTINUOUS
 62
    7
 10
25511.038
 20
22516.352
 11
25578.845
 21
22413.032
  0
LINE
  8
0-0
  6
CONTINUOUS
 62
    7
 10
25357.039
 20
22497.685
 11
25294.793
 21
22413.032
  0
LINE
  8
0-0
  6
CONTINUOUS
 62
    7
 10
25658.038
 20
22171.538
 11
25850.536
 21
22171.538
  0
LINE
  8
0-0
  6
CONTINUOUS
 62
    7
 10
25231.036
 20
22413.032
 11
25658.038
 21
22413.032
  0
LINE
  8
0-0
  6
CONTINUOUS
 62
    7
 10
25850.536
 20
23193.663
 11
26015.033
 21
23307.782
  0
LINE
  8
0-0
  6
CONTINUOUS
 62
    7
 10
25850.536
 20
22262.508
 11
26015.033
 21
22262.508
  0
LINE
  8
0-0
  6
CONTINUOUS
 62
    7
 10
25549.536
 20
21583.534
 11
26015.033
 21
21583.534
  0
LINE
  8
0-0
  6
CONTINUOUS
 62
    7
 10
25549.536
 20
20964.034
 11
26015.033
 21
20964.034
  0
LINE
  8
0-0
  6
CONTINUOUS
 62
    7
 10
25939.518
 20
19554.27
 11
26015.033
 21
19542.828
  0
LINE
  8
0-0
  6
CONTINUOUS
 62
    7
 10
25794.537
 20
18545.536
 11
26015.033
 21
18545.536
  0
LINE
  8
0-0
  6
CONTINUOUS
 62
    7
 10
25675.536
 20
17996.033
 11
26015.033
 21
17996.033
  0
LINE
  8
0-0
  6
CONTINUOUS
 62
    7
 10
25773.54
 20
17019.536
 11
26015.033
 21
16995.554
  0
LINE
  8
0-0
  6
CONTINUOUS
 62
    7
 10
25493.537
 20
16893.539
 11
26015.033
 21
16821.831
  0
LINE
  8
0-0
  6
CONTINUOUS
 62
    7
 10
25677.289
 20
17996.033
 11
25815.103
 21
17528.815
  0
LINE
  8
0-0
  6
CONTINUOUS
 62
    7
 10
25815.103
 20
17528.815
 11
25655.564
 21
17086.096
  0
LINE
  8
0-0
  6
CONTINUOUS
 62
    7
 10
24975.138
 20
17470.004
 11
25773.54
 21
17019.536
  0
LINE
  8
0-0
  6
CONTINUOUS
 62
    7
 10
25462.899
 20
17900.906
 11
25609.63
 21
17678.923
  0
LINE
  8
0-0
  6
CONTINUOUS
 62
    7
 10
24679.3
 20
17861.792
 11
24975.138
 21
17470.004
  0
LINE
  8
0-0
  6
CONTINUOUS
 62
    7
 10
24008.336
 20
18435.179
 11
24111.036
 21
18167.538
  0
LINE
  8
0-0
  6
CONTINUOUS
 62
    7
 10
24566.038
 20
18622.54
 11
24102.018
 21
18622.54
  0
LINE
  8
0-0
  6
CONTINUOUS
 62
    7
 10
24102.018
 20
18622.54
 11
24008.336
 21
18435.179
  0
LINE
  8
0-0
  6
CONTINUOUS
 62
    7
 10
24030.747
 20
18479.985
 11
25076.994
 21
22032.884
  0
LINE
  8
0-0
  6
CONTINUOUS
 62
    7
 10
25240.775
 20
21877.146
 11
24282.369
 21
18622.54
  0
LINE
  8
0-0
  6
CONTINUOUS
 62
    7
 10
24492.006
 20
18622.54
 11
25404.562
 21
21721.397
  0
LINE
  8
0-0
  6
CONTINUOUS
 62
    7
 10
25452.617
 20
19712.918
 11
25581.074
 21
19672.476
  0
LINE
  8
0-0
  6
CONTINUOUS
 62
    7
 10
25581.074
 20
19672.476
 11
25648.625
 21
19966.534
  0
LINE
  8
0-0
  6
CONTINUOUS
 62
    7
 10
25788.297
 20
19627.838
 11
25939.518
 21
19554.27
  0
LINE
  8
0-0
  6
CONTINUOUS
 62
    7
 10
25549.536
 20
20964.034
 11
25549.536
 21
20265.214
  0
LINE
  8
0-0
  6
CONTINUOUS
 62
    7
 10
25543.153
 20
20265.214
 11
25788.297
 21
19627.838
  0
LINE
  8
0-0
  6
CONTINUOUS
 62
    7
 10
25549.536
 20
20265.214
 11
25357.039
 21
20265.214
  0
LINE
  8
0-0
  6
CONTINUOUS
 62
    7
 10
25357.039
 20
20964.034
 11
25390.606
 21
21205.949
  0
LINE
  8
0-0
  6
CONTINUOUS
 62
    7
 10
25390.606
 20
21205.949
 11
26015.033
 21
21205.949
  0
LINE
  8
0-0
  6
CONTINUOUS
 62
    7
 10
25357.039
 20
20265.214
 11
25357.039
 21
20964.034
  0
LINE
  8
0-0
  6
CONTINUOUS
 62
    7
 10
25549.536
 20
20964.034
 11
25357.039
 21
20964.034
  0
LINE
  8
0-0
  6
CONTINUOUS
 62
    7
 10
25549.536
 20
20964.034
 11
25515.969
 21
21205.949
  0
LINE
  8
0-0
  6
CONTINUOUS
 62
    7
 10
26799.038
 20
22413.032
 11
26981.041
 21
22297.534
  0
LINE
  8
0-0
  6
CONTINUOUS
 62
    7
 10
26981.041
 20
22297.534
 11
27051.041
 21
22126.041
  0
LINE
  8
0-0
  6
CONTINUOUS
 62
    7
 10
27051.041
 20
22126.041
 11
26480.538
 21
21583.534
  0
LINE
  8
0-0
  6
CONTINUOUS
 62
    7
 10
26179.538
 20
22066.536
 11
26179.538
 21
23193.663
  0
LINE
  8
0-0
  6
CONTINUOUS
 62
    7
 10
26673.035
 20
22259.033
 11
26673.035
 21
22609.032
  0
LINE
  8
0-0
  6
CONTINUOUS
 62
    7
 10
26673.035
 20
22259.033
 11
26519.036
 21
22259.033
  0
LINE
  8
0-0
  6
CONTINUOUS
 62
    7
 10
26519.036
 20
22609.032
 11
26519.036
 21
22259.033
  0
LINE
  8
0-0
  6
CONTINUOUS
 62
    7
 10
26722.039
 20
19154.535
 11
26511.785
 21
19966.534
  0
LINE
  8
0-0
  6
CONTINUOUS
 62
    7
 10
26722.039
 20
19154.535
 11
26914.539
 21
18874.533
  0
LINE
  8
0-0
  6
CONTINUOUS
 62
    7
 10
27156.04
 20
18671.533
 11
26914.539
 21
18874.533
  0
LINE
  8
0-0
  6
CONTINUOUS
 62
    7
 10
27156.04
 20
18671.533
 11
27464.039
 21
18622.54
  0
LINE
  8
0-0
  6
CONTINUOUS
 62
    7
 10
27919.034
 20
18167.538
 11
27457.04
 21
17793.031
  0
LINE
  8
0-0
  6
CONTINUOUS
 62
    7
 10
27457.04
 20
17793.031
 11
26981.041
 21
18101.035
  0
LINE
  8
0-0
  6
CONTINUOUS
 62
    7
 10
26981.041
 20
18101.035
 11
26739.54
 21
18111.537
  0
LINE
  8
0-0
  6
CONTINUOUS
 62
    7
 10
26536.54
 20
16893.539
 11
27457.04
 21
17793.031
  0
LINE
  8
0-0
  6
CONTINUOUS
 62
    7
 10
26526.038
 20
17184.033
 11
26235.537
 21
18545.536
  0
LINE
  8
0-0
  6
CONTINUOUS
 62
    7
 10
26739.54
 20
18111.537
 11
26567.179
 21
17900.906
  0
LINE
  8
0-0
  6
CONTINUOUS
 62
    7
 10
26372.036
 20
22171.538
 11
26372.036
 21
22462.032
  0
LINE
  8
0-0
  6
CONTINUOUS
 62
    7
 10
26372.036
 20
22462.032
 11
26179.538
 21
22716.341
  0
LINE
  8
0-0
  6
CONTINUOUS
 62
    7
 10
26519.036
 20
22516.352
 11
26451.233
 21
22413.032
  0
LINE
  8
0-0
  6
CONTINUOUS
 62
    7
 10
26673.035
 20
22497.685
 11
26735.284
 21
22413.032
  0
LINE
  8
0-0
  6
CONTINUOUS
 62
    7
 10
26372.036
 20
22171.538
 11
26179.538
 21
22171.538
  0
LINE
  8
0-0
  6
CONTINUOUS
 62
    7
 10
26799.038
 20
22413.032
 11
26372.036
 21
22413.032
  0
LINE
  8
0-0
  6
CONTINUOUS
 62
    7
 10
26179.538
 20
23193.663
 11
26015.033
 21
23307.782
  0
LINE
  8
0-0
  6
CONTINUOUS
 62
    7
 10
26179.538
 20
22262.508
 11
26015.033
 21
22262.508
  0
LINE
  8
0-0
  6
CONTINUOUS
 62
    7
 10
26480.538
 20
21583.534
 11
26015.033
 21
21583.534
  0
LINE
  8
0-0
  6
CONTINUOUS
 62
    7
 10
26480.538
 20
20964.034
 11
26015.033
 21
20964.034
  0
LINE
  8
0-0
  6
CONTINUOUS
 62
    7
 10
26090.56
 20
19554.27
 11
26015.033
 21
19542.828
  0
LINE
  8
0-0
  6
CONTINUOUS
 62
    7
 10
26235.537
 20
18545.536
 11
26015.033
 21
18545.536
  0
LINE
  8
0-0
  6
CONTINUOUS
 62
    7
 10
26354.538
 20
17996.033
 11
26015.033
 21
17996.033
  0
LINE
  8
0-0
  6
CONTINUOUS
 62
    7
 10
26256.538
 20
17019.536
 11
26015.033
 21
16995.554
  0
LINE
  8
0-0
  6
CONTINUOUS
 62
    7
 10
26536.54
 20
16893.539
 11
26015.033
 21
16821.831
  0
LINE
  8
0-0
  6
CONTINUOUS
 62
    7
 10
26352.785
 20
17996.033
 11
26214.978
 21
17528.815
  0
LINE
  8
0-0
  6
CONTINUOUS
 62
    7
 10
26214.978
 20
17528.815
 11
26374.517
 21
17086.096
  0
LINE
  8
0-0
  6
CONTINUOUS
 62
    7
 10
27054.936
 20
17470.004
 11
26256.538
 21
17019.536
  0
LINE
  8
0-0
  6
CONTINUOUS
 62
    7
 10
26567.179
 20
17900.906
 11
26420.444
 21
17678.923
  0
LINE
  8
0-0
  6
CONTINUOUS
 62
    7
 10
27350.774
 20
17861.792
 11
27054.936
 21
17470.004
  0
LINE
  8
0-0
  6
CONTINUOUS
 62
    7
 10
28021.738
 20
18435.179
 11
27919.034
 21
18167.538
  0
LINE
  8
0-0
  6
CONTINUOUS
 62
    7
 10
27464.039
 20
18622.54
 11
27928.056
 21
18622.54
  0
LINE
  8
0-0
  6
CONTINUOUS
 62
    7
 10
27928.056
 20
18622.54
 11
28021.738
 21
18435.179
  0
LINE
  8
0-0
  6
CONTINUOUS
 62
    7
 10
27999.334
 20
18479.985
 11
26953.08
 21
22032.884
  0
LINE
  8
0-0
  6
CONTINUOUS
 62
    7
 10
26789.299
 20
21877.146
 11
27747.709
 21
18622.54
  0
LINE
  8
0-0
  6
CONTINUOUS
 62
    7
 10
27538.067
 20
18622.54
 11
26625.512
 21
21721.397
  0
LINE
  8
0-0
  6
CONTINUOUS
 62
    7
 10
26241.784
 20
19627.838
 11
26090.56
 21
19554.27
  0
LINE
  8
0-0
  6
CONTINUOUS
 62
    7
 10
26480.538
 20
20964.034
 11
26480.538
 21
20265.214
  0
LINE
  8
0-0
  6
CONTINUOUS
 62
    7
 10
26486.921
 20
20265.214
 11
26241.784
 21
19627.838
  0
LINE
  8
0-0
  6
CONTINUOUS
 62
    7
 10
26480.538
 20
20265.214
 11
26673.035
 21
20265.214
  0
LINE
  8
0-0
  6
CONTINUOUS
 62
    7
 10
26673.035
 20
20964.034
 11
26639.468
 21
21205.949
  0
LINE
  8
0-0
  6
CONTINUOUS
 62
    7
 10
26639.468
 20
21205.949
 11
26015.033
 21
21205.949
  0
LINE
  8
0-0
  6
CONTINUOUS
 62
    7
 10
26673.035
 20
20265.214
 11
26673.035
 21
20964.034
  0
LINE
  8
0-0
  6
CONTINUOUS
 62
    7
 10
26480.538
 20
20964.034
 11
26673.035
 21
20964.034
  0
LINE
  8
0-0
  6
CONTINUOUS
 62
    7
 10
26480.538
 20
20964.034
 11
26446.967
 21
21205.949
  0
LINE
  8
0-0
  6
CONTINUOUS
 62
    7
 10
26214.215
 20
21205.949
 11
26247.793
 21
20964.034
  0
LINE
  8
0-0
  6
CONTINUOUS
 62
    7
 10
25981.466
 20
21205.949
 11
26015.033
 21
20964.034
  0
LINE
  8
0-0
  6
CONTINUOUS
 62
    7
 10
25748.721
 20
21205.949
 11
25782.288
 21
20964.034
  0
LINE
  8
0-0
  6
CONTINUOUS
 62
    7
 10
25788.297
 20
19627.838
 11
26169.04
 21
18468.532
  0
LINE
  8
0-0
  6
CONTINUOUS
 62
    7
 10
26169.04
 20
18468.532
 11
26841.9
 21
18468.532
  0
LINE
  8
0-0
  6
CONTINUOUS
 62
    7
 10
26841.9
 20
18468.532
 11
26536.54
 21
19938.533
  0
LINE
  8
0-0
  6
CONTINUOUS
 62
    7
 10
25905.922
 20
19269.683
 11
26648.825
 21
19397.996
  0
LINE
  8
0-0
  6
CONTINUOUS
 62
    7
 10
26015.033
 20
18937.442
 11
26015.033
 21
16821.831
  0
LINE
  8
0-0
  6
CONTINUOUS
 62
    7
 10
25518.289
 20
19966.534
 11
25648.625
 21
19966.534
  0
LINE
  8
0-0
  6
CONTINUOUS
 62
    7
 10
26511.785
 20
19966.534
 11
26370.692
 21
19966.534
  0
LINE
  8
0-0
  6
CONTINUOUS
 62
    7
 10
25948.795
 20
19847.544
 11
26086.598
 21
19847.544
  0
LINE
  8
0-0
  6
CONTINUOUS
 62
    7
 10
26015.033
 20
19735.583
 11
26015.033
 21
19933.674
  0
LINE
  8
0-0
  6
CONTINUOUS
 62
    7
 10
16537.724
 20
16521.726
 11
16581.506
 21
15997.144
  0
LINE
  8
0-0
  6
CONTINUOUS
 62
    7
 10
19499.706
 20
16367.235
 11
18536.078
 21
16477.028
  0
LINE
  8
0-0
  6
CONTINUOUS
 62
    7
 10
18263.677
 20
16373.144
 11
18536.078
 21
16477.028
  0
LINE
  8
0-0
  6
CONTINUOUS
 62
    7
 10
18215.604
 20
16588.348
 11
18592.242
 21
16672.535
  0
LINE
  8
0-0
  6
CONTINUOUS
 62
    7
 10
19499.706
 20
16569.146
 11
18592.242
 21
16672.535
  0
LINE
  8
0-0
  6
CONTINUOUS
 62
    7
 10
18703.806
 20
17195.979
 11
19499.706
 21
17169.346
  0
LINE
  8
0-0
  6
CONTINUOUS
 62
    7
 10
19268.836
 20
17042.508
 11
19499.706
 21
17041.142
  0
LINE
  8
0-0
  6
CONTINUOUS
 62
    7
 10
18263.677
 20
16373.144
 11
16569.128
 21
15994.373
  0
LINE
  8
0-0
  6
CONTINUOUS
 62
    7
 10
16751.047
 20
15541.972
 11
16581.506
 21
15997.144
  0
LINE
  8
0-0
  6
CONTINUOUS
 62
    7
 10
16751.047
 20
16035.042
 11
16751.047
 21
15541.972
  0
LINE
  8
0-0
  6
CONTINUOUS
 62
    7
 10
20295.605
 20
17195.979
 11
20610.855
 21
17322.757
  0
LINE
  8
0-0
  6
CONTINUOUS
 62
    7
 10
20861.647
 20
17514.168
 11
20610.855
 21
17322.757
  0
LINE
  8
0-0
  6
CONTINUOUS
 62
    7
 10
20861.647
 20
17514.168
 11
20976.655
 21
17804.058
  0
LINE
  8
0-0
  6
CONTINUOUS
 62
    7
 10
21519.949
 20
18148.84
 11
21784.649
 21
17616.282
  0
LINE
  8
0-0
  6
CONTINUOUS
 62
    7
 10
21784.649
 20
17616.282
 11
21380.228
 21
17218.922
  0
LINE
  8
0-0
  6
CONTINUOUS
 62
    7
 10
21380.228
 20
17218.922
 11
21317.3
 21
16985.527
  0
LINE
  8
0-0
  6
CONTINUOUS
 62
    7
 10
22461.684
 20
16521.726
 11
21784.649
 21
17616.282
  0
LINE
  8
0-0
  6
CONTINUOUS
 62
    7
 10
22175.893
 20
16574.846
 11
20783.811
 21
16588.348
  0
LINE
  8
0-0
  6
CONTINUOUS
 62
    7
 10
21317.3
 20
16985.527
 11
21485.259
 21
16771.382
  0
LINE
  8
0-0
  6
CONTINUOUS
 62
    7
 10
20783.811
 20
16588.348
 11
20735.707
 21
16373.154
  0
LINE
  8
0-0
  6
CONTINUOUS
 62
    7
 10
21346.034
 20
16584.605
 11
21271.974
 21
16253.284
  0
LINE
  8
0-0
  6
CONTINUOUS
 62
    7
 10
22277.645
 20
16275.948
 11
22248.368
 21
16035.032
  0
LINE
  8
0-0
  6
CONTINUOUS
 62
    7
 10
21345.653
 20
16582.894
 11
21771.56
 21
16346.49
  0
LINE
  8
0-0
  6
CONTINUOUS
 62
    7
 10
21771.56
 20
16346.49
 11
22238.416
 21
16405.607
  0
LINE
  8
0-0
  6
CONTINUOUS
 62
    7
 10
22012.179
 20
17153.39
 11
22277.645
 21
16275.948
  0
LINE
  8
0-0
  6
CONTINUOUS
 62
    7
 10
21485.259
 20
16771.382
 11
21669.882
 21
16579.756
  0
LINE
  8
0-0
  6
CONTINUOUS
 62
    7
 10
21694.365
 20
17527.569
 11
22012.179
 21
17153.39
  0
LINE
  8
0-0
  6
CONTINUOUS
 62
    7
 10
21281.161
 20
18307.45
 11
21519.949
 21
18148.84
  0
LINE
  8
0-0
  6
CONTINUOUS
 62
    7
 10
20976.655
 20
17804.058
 11
21077.878
 21
18256.903
  0
LINE
  8
0-0
  6
CONTINUOUS
 62
    7
 10
21077.878
 20
18256.903
 11
21281.161
 21
18307.45
  0
LINE
  8
0-0
  6
CONTINUOUS
 62
    7
 10
19719.132
 20
17176.69
 11
19730.579
 21
17042.508
  0
LINE
  8
0-0
  6
CONTINUOUS
 62
    7
 10
22461.684
 20
16521.726
 11
22417.902
 21
15997.144
  0
LINE
  8
0-0
  6
CONTINUOUS
 62
    7
 10
19499.706
 20
16367.235
 11
20463.337
 21
16477.028
  0
LINE
  8
0-0
  6
CONTINUOUS
 62
    7
 10
20735.738
 20
16373.144
 11
20463.337
 21
16477.028
  0
LINE
  8
0-0
  6
CONTINUOUS
 62
    7
 10
20783.811
 20
16588.348
 11
20407.166
 21
16672.535
  0
LINE
  8
0-0
  6
CONTINUOUS
 62
    7
 10
19499.706
 20
16569.146
 11
20407.166
 21
16672.535
  0
LINE
  8
0-0
  6
CONTINUOUS
 62
    7
 10
20295.605
 20
17195.979
 11
19499.706
 21
17169.346
  0
LINE
  8
0-0
  6
CONTINUOUS
 62
    7
 10
19730.579
 20
17042.508
 11
19499.706
 21
17041.142
  0
LINE
  8
0-0
  6
CONTINUOUS
 62
    7
 10
20735.738
 20
16373.144
 11
22430.286
 21
15994.373
  0
LINE
  8
0-0
  6
CONTINUOUS
 62
    7
 10
22248.368
 20
15541.972
 11
22417.902
 21
15997.144
  0
LINE
  8
0-0
  6
CONTINUOUS
 62
    7
 10
22248.368
 20
16035.042
 11
22248.368
 21
15541.972
  0
LINE
  8
0-0
  6
CONTINUOUS
 62
    7
 10
19107.642
 20
18110.102
 11
19107.642
 21
21262.227
  0
LINE
  8
0-0
  6
CONTINUOUS
 62
    7
 10
19350.193
 20
18217.907
 11
19350.193
 21
21262.227
  0
LINE
  8
0-0
  6
CONTINUOUS
 62
    7
 10
19619.697
 20
18190.955
 11
19619.697
 21
21262.227
  0
LINE
  8
0-0
  6
CONTINUOUS
 62
    7
 10
19889.197
 20
18164.004
 11
19889.197
 21
21262.227
  0
LINE
  8
0-0
  6
CONTINUOUS
 62
    7
 10
27787.173
 20
36384.196
 11
27787.173
 21
36160.899
  0
LINE
  8
0-0
  6
CONTINUOUS
 62
    7
 10
26692.779
 20
36384.217
 11
26692.779
 21
36160.829
  0
LINE
  8
0-0
  6
CONTINUOUS
 62
    7
 10
27388.52
 20
34828.994
 11
27091.433
 21
34828.994
  0
LINE
  8
0-0
  6
CONTINUOUS
 62
    7
 10
27785.294
 20
36146.656
 11
27472.182
 21
34894.211
  0
LINE
  8
0-0
  6
CONTINUOUS
 62
    7
 10
27007.717
 20
34894.33
 11
26694.631
 21
36146.712
  0
LINE
  8
0-0
  6
CONTINUOUS
 62
    7
 10
27301.459
 20
36527.683
 11
27786.994
 21
36297.688
  0
LINE
  8
0-0
  6
CONTINUOUS
 62
    7
 10
27178.056
 20
36527.298
 11
26692.541
 21
36297.324
  0
LINE
  8
0-0
  6
CONTINUOUS
 62
    7
 10
27282.317
 20
36941.688
 11
27546.099
 21
36650.151
  0
LINE
  8
0-0
  6
CONTINUOUS
 62
    7
 10
27695.899
 20
36621.798
 11
27610.532
 21
36621.798
  0
LINE
  8
0-0
  6
CONTINUOUS
 62
    7
 10
27752.671
 20
36574.331
 11
27787.274
 21
36384.021
  0
LINE
  8
0-0
  6
CONTINUOUS
 62
    7
 10
27658.041
 20
35815.813
 11
27525.679
 21
35286.345
  0
LINE
  8
0-0
  6
CONTINUOUS
 62
    7
 10
26954.224
 20
35286.471
 11
26821.855
 21
35815.953
  0
LINE
  8
0-0
  6
CONTINUOUS
 62
    7
 10
27658.23
 20
35816.093
 11
27547.058
 21
35816.093
  0
LINE
  8
0-0
  6
CONTINUOUS
 62
    7
 10
27525.858
 20
35286.632
 11
26954.094
 21
35286.632
  0
LINE
  8
0-0
  6
CONTINUOUS
 62
    7
 10
26932.922
 20
35816.093
 11
26821.736
 21
35816.093
  0
LINE
  8
0-0
  6
CONTINUOUS
 62
    7
 10
27373.178
 20
34828.987
 11
27373.178
 21
34195.374
  0
LINE
  8
0-0
  6
CONTINUOUS
 62
    7
 10
27106.785
 20
34828.987
 11
27106.785
 21
34195.374
  0
LINE
  8
0-0
  6
CONTINUOUS
 62
    7
 10
27639.966
 20
34391.472
 11
27660.358
 21
34211.367
  0
LINE
  8
0-0
  6
CONTINUOUS
 62
    7
 10
26817.827
 20
34195.185
 11
26840.315
 21
34396.749
  0
LINE
  8
0-0
  6
CONTINUOUS
 62
    7
 10
27729.837
 20
34413.855
 11
27825.121
 21
34172.809
  0
LINE
  8
0-0
  6
CONTINUOUS
 62
    7
 10
26749.87
 20
34414.03
 11
26654.586
 21
34172.984
  0
LINE
  8
0-0
  6
CONTINUOUS
 62
    7
 10
27517.158
 20
33719.98
 11
26962.756
 21
33719.98
  0
LINE
  8
0-0
  6
CONTINUOUS
 62
    7
 10
27400.288
 20
34785.824
 11
27373.178
 21
34785.824
  0
LINE
  8
0-0
  6
CONTINUOUS
 62
    7
 10
27400.288
 20
34756.989
 11
27373.178
 21
34756.989
  0
LINE
  8
0-0
  6
CONTINUOUS
 62
    7
 10
27106.795
 20
34785.824
 11
27079.685
 21
34785.824
  0
LINE
  8
0-0
  6
CONTINUOUS
 62
    7
 10
27106.795
 20
34756.989
 11
27079.674
 21
34756.989
  0
LINE
  8
0-0
  6
CONTINUOUS
 62
    7
 10
27435.137
 20
34781.359
 11
27639.256
 21
34396.84
  0
LINE
  8
0-0
  6
CONTINUOUS
 62
    7
 10
27044.291
 20
34781.422
 11
26840.164
 21
34396.875
  0
LINE
  8
0-0
  6
CONTINUOUS
 62
    7
 10
27399.466
 20
34756.975
 11
27617.429
 21
34400.725
  0
LINE
  8
0-0
  6
CONTINUOUS
 62
    7
 10
27079.933
 20
34757.024
 11
26861.966
 21
34400.746
  0
LINE
  8
0-0
  6
CONTINUOUS
 62
    7
 10
26840.196
 20
34396.868
 11
26847.342
 21
34393.075
  0
LINE
  8
0-0
  6
CONTINUOUS
 62
    7
 10
27636.512
 20
34395.413
 11
27639.235
 21
34396.861
  0
LINE
  8
0-0
  6
CONTINUOUS
 62
    7
 10
27197.02
 20
36941.646
 11
26692.8
 21
36384.434
  0
LINE
  8
0-0
  6
CONTINUOUS
 62
    7
 10
23477.717
 20
35513.547
 11
23477.717
 21
35328.15
  0
LINE
  8
0-0
  6
CONTINUOUS
 62
    7
 10
24412.722
 20
35730.754
 11
24412.722
 21
35328.164
  0
LINE
  8
0-0
  6
CONTINUOUS
 62
    7
 10
24376.782
 20
35766.785
 11
24196.844
 21
35766.785
  0
LINE
  8
0-0
  6
CONTINUOUS
 62
    7
 10
23888.734
 20
35949.312
 11
23495.368
 21
35555.954
  0
LINE
  8
0-0
  6
CONTINUOUS
 62
    7
 10
24175.655
 20
35775.555
 11
24001.866
 21
35949.333
  0
LINE
  8
0-0
  6
CONTINUOUS
 62
    7
 10
24057.175
 20
34638.775
 11
23833.385
 21
34638.775
  0
LINE
  8
0-0
  6
CONTINUOUS
 62
    7
 10
24407.063
 20
35302.652
 11
24111.46
 21
34673.266
  0
LINE
  8
0-0
  6
CONTINUOUS
 62
    7
 10
23779.056
 20
34673.245
 11
23483.456
 21
35302.638
  0
LINE
  8
0-0
  6
CONTINUOUS
 62
    7
 10
24095.211
 20
34373.31
 11
24095.211
 21
34307.253
  0
LINE
  8
0-0
  6
CONTINUOUS
 62
    7
 10
23945.279
 20
34157.278
 11
23911.963
 21
34158.384
  0
LINE
  8
0-0
  6
CONTINUOUS
 62
    7
 10
23911.963
 20
34158.384
 11
23878.833
 21
34161.982
  0
LINE
  8
0-0
  6
CONTINUOUS
 62
    7
 10
23878.833
 20
34161.982
 11
23846.183
 21
34168.617
  0
LINE
  8
0-0
  6
CONTINUOUS
 62
    7
 10
23846.183
 20
34168.617
 11
23814.562
 21
34179.073
  0
LINE
  8
0-0
  6
CONTINUOUS
 62
    7
 10
23814.562
 20
34179.073
 11
23784.917
 21
34194.247
  0
LINE
  8
0-0
  6
CONTINUOUS
 62
    7
 10
23784.917
 20
34194.247
 11
23758.867
 21
34214.929
  0
LINE
  8
0-0
  6
CONTINUOUS
 62
    7
 10
23758.867
 20
34214.929
 11
23737.852
 21
34240.741
  0
LINE
  8
0-0
  6
CONTINUOUS
 62
    7
 10
23737.852
 20
34240.741
 11
23721.296
 21
34269.633
  0
LINE
  8
0-0
  6
CONTINUOUS
 62
    7
 10
23721.296
 20
34269.633
 11
23710.052
 21
34300.968
  0
LINE
  8
0-0
  6
CONTINUOUS
 62
    7
 10
23710.052
 20
34300.968
 11
23703.599
 21
34333.583
  0
LINE
  8
0-0
  6
CONTINUOUS
 62
    7
 10
23703.599
 20
34333.583
 11
23702.777
 21
34362.762
  0
ARC
  8
0-0
  6
CONTINUOUS
 62
    7
 10
25302.936
 20
28847.724
 40
922.44693
 50
142.13467
 51
151.18914
  0
ARC
  8
0-0
  6
CONTINUOUS
 62
    7
 10
25238.213
 20
28898.845
 40
849.58897
 50
142.67974
 51
150.47775
  0
ARC
  8
0-0
  6
CONTINUOUS
 62
    7
 10
24415.371
 20
28847.724
 40
922.44693
 50
28.810836
 51
37.86531
  0
ARC
  8
0-0
  6
CONTINUOUS
 62
    7
 10
24480.098
 20
28898.845
 40
849.58897
 50
29.522232
 51
37.320236
  0
ARC
  8
0-0
  6
CONTINUOUS
 62
    7
 10
24895.779
 20
29081.456
 40
1581.135
 50
217.25288
 51
268.67257
  0
ARC
  8
0-0
  6
CONTINUOUS
 62
    7
 10
25450.269
 20
28329.762
 40
1009.399
 50
187.48895
 51
227.49752
  0
ARC
  8
0-0
  6
CONTINUOUS
 62
    7
 10
25243.207
 20
27811.377
 40
493.95002
 50
182.15068
 51
218.96676
  0
ARC
  8
0-0
  6
CONTINUOUS
 62
    7
 10
25276.585
 20
27838.635
 40
537.04398
 50
184.47741
 51
218.9888
  0
ARC
  8
0-0
  6
CONTINUOUS
 62
    7
 10
24954.935
 20
28610.409
 40
1115.05
 50
258.3664
 51
264.36666
  0
ARC
  8
0-0
  6
CONTINUOUS
 62
    7
 10
24791.935
 20
27543.735
 40
48.341995
 50
79.149841
 51
119.63902
  0
ARC
  8
0-0
  6
CONTINUOUS
 62
    7
 10
25111.094
 20
28404.946
 40
956.21891
 50
179.14083
 51
246.55329
  0
ARC
  8
0-0
  6
CONTINUOUS
 62
    7
 10
25100.875
 20
28402.559
 40
958.88401
 50
179.00038
 51
246.74729
  0
ARC
  8
0-0
  6
CONTINUOUS
 62
    7
 10
24928.685
 20
28614.458
 40
1114.0389
 50
197.68577
 51
259.7306
  0
ARC
  8
0-0
  6
CONTINUOUS
 62
    7
 10
24898.159
 20
28415.784
 40
909.86397
 50
191.25503
 51
258.43945
  0
ARC
  8
0-0
  6
CONTINUOUS
 62
    7
 10
24946.214
 20
28617.772
 40
1117.4609
 50
197.8085
 51
258.60865
  0
ARC
  8
0-0
  6
CONTINUOUS
 62
    7
 10
25379.6
 20
28444.396
 40
1090.0788
 50
181.32017
 51
235.27925
  0
ARC
  8
0-0
  6
CONTINUOUS
 62
    7
 10
25361.175
 20
28438.814
 40
1084.381
 50
181.03215
 51
235.74284
  0
ARC
  8
0-0
  6
CONTINUOUS
 62
    7
 10
24307.313
 20
27644.038
 40
47.160994
 50
92.435317
 51
193.34721
  0
ARC
  8
0-0
  6
CONTINUOUS
 62
    7
 10
24606.017
 20
27535.56
 40
17.263997
 50
118.6333
 51
197.89822
  0
ARC
  8
0-0
  6
CONTINUOUS
 62
    7
 10
24078.382
 20
28419.287
 40
530.65405
 50
146.23332
 51
213.76666
  0
CIRCLE
  8
0-0
  6
CONTINUOUS
 62
    7
 10
23637.249
 20
28419.287
 40
77.106995
  0
ARC
  8
0-0
  6
CONTINUOUS
 62
    7
 10
25555.881
 20
28258.093
 40
1422.9028
 50
154.85644
 51
173.49543
  0
ARC
  8
0-0
  6
CONTINUOUS
 62
    7
 10
25228.631
 20
28334.602
 40
1076.985
 50
154.41102
 51
175.49014
  0
ARC
  8
0-0
  6
CONTINUOUS
 62
    7
 10
25231.83
 20
28419.287
 40
1454.409
 50
174.68072
 51
185.31925
  0
ARC
  8
0-0
  6
CONTINUOUS
 62
    7
 10
25495.031
 20
28419.287
 40
1707.0008
 50
175.28941
 51
184.71057
  0
ARC
  8
0-0
  6
CONTINUOUS
 62
    7
 10
24318.056
 20
28412.802
 40
471.05297
 50
161.85966
 51
196.8814
  0
ARC
  8
0-0
  6
CONTINUOUS
 62
    7
 10
24333.052
 20
28412.802
 40
471.05297
 50
161.85966
 51
196.8814
  0
ARC
  8
0-0
  6
CONTINUOUS
 62
    7
 10
25071.161
 20
28417.744
 40
1188.9309
 50
173.15383
 51
186.84614
  0
ARC
  8
0-0
  6
CONTINUOUS
 62
    7
 10
25082.24
 20
28417.744
 40
1188.9309
 50
173.15383
 51
186.84614
  0
ARC
  8
0-0
  6
CONTINUOUS
 62
    7
 10
25178.277
 20
28417.744
 40
1188.9309
 50
174.65667
 51
185.20249
  0
ARC
  8
0-0
  6
CONTINUOUS
 62
    7
 10
25187.355
 20
28410.815
 40
764.535
 50
171.14813
 51
187.58209
  0
ARC
  8
0-0
  6
CONTINUOUS
 62
    7
 10
24246.789
 20
28417.296
 40
68.331997
 50
178.33766
 51
243.6009
  0
CIRCLE
  8
0-0
  6
CONTINUOUS
 62
    7
 10
23637.249
 20
28419.287
 40
35.392995
  0
ARC
  8
0-0
  6
CONTINUOUS
 62
    7
 10
24322.63
 20
28417.296
 40
68.331997
 50
178.33766
 51
230.69432
  0
ARC
  8
0-0
  6
CONTINUOUS
 62
    7
 10
25017.758
 20
27760.095
 40
1678.145
 50
113.78706
 51
145.35008
  0
ARC
  8
0-0
  6
CONTINUOUS
 62
    7
 10
25149.812
 20
27633.049
 40
1837.878
 50
124.38615
 51
144.60992
  0
ARC
  8
0-0
  6
CONTINUOUS
 62
    7
 10
25158.197
 20
27624.539
 40
1829.9956
 50
124.4398
 51
144.54612
  0
ARC
  8
0-0
  6
CONTINUOUS
 62
    7
 10
26826.331
 20
27907.243
 40
2485.0281
 50
149.25302
 51
154.74613
  0
ARC
  8
0-0
  6
CONTINUOUS
 62
    7
 10
27465.572
 20
27607.744
 40
3225.3571
 50
150.39181
 51
154.22994
  0
ARC
  8
0-0
  6
CONTINUOUS
 62
    7
 10
27469.071
 20
27601.617
 40
3225.3571
 50
150.39181
 51
154.22994
  0
ARC
  8
0-0
  6
CONTINUOUS
 62
    7
 10
27026.475
 20
27778.923
 40
2779.7829
 50
152.48521
 51
162.37553
  0
ARC
  8
0-0
  6
CONTINUOUS
 62
    7
 10
26997.796
 20
27802.814
 40
2779.7829
 50
152.15856
 51
163.01318
  0
ARC
  8
0-0
  6
CONTINUOUS
 62
    7
 10
27031.252
 20
27769.362
 40
2779.7829
 50
152.44184
 51
162.41032
  0
ARC
  8
0-0
  6
CONTINUOUS
 62
    7
 10
25072.4
 20
28011.388
 40
1307.4118
 50
132.97428
 51
155.21528
  0
ARC
  8
0-0
  6
CONTINUOUS
 62
    7
 10
25149.571
 20
28116.797
 40
1226.2259
 50
134.53976
 51
156.81195
  0
ARC
  8
0-0
  6
CONTINUOUS
 62
    7
 10
25063.07
 20
28023.829
 40
1307.4118
 50
132.93597
 51
155.81436
  0
ARC
  8
0-0
  6
CONTINUOUS
 62
    7
 10
25947.888
 20
28265.281
 40
1538.6389
 50
154.8458
 51
165.97319
  0
ARC
  8
0-0
  6
CONTINUOUS
 62
    7
 10
24665.029
 20
29199.197
 40
4.2129998
 50
0
 51
150.39181
  0
ARC
  8
0-0
  6
CONTINUOUS
 62
    7
 10
24822.528
 20
29081.456
 40
1581.135
 50
271.3274
 51
322.7471
  0
ARC
  8
0-0
  6
CONTINUOUS
 62
    7
 10
24338.711
 20
28444.396
 40
1090.0788
 50
304.72073
 51
358.6798
  0
ARC
  8
0-0
  6
CONTINUOUS
 62
    7
 10
24357.139
 20
28438.814
 40
1084.381
 50
304.25714
 51
358.96783
  0
ARC
  8
0-0
  6
CONTINUOUS
 62
    7
 10
24607.217
 20
28404.946
 40
956.21891
 50
293.44668
 51
0.8591461
  0
ARC
  8
0-0
  6
CONTINUOUS
 62
    7
 10
24617.436
 20
28402.559
 40
958.88401
 50
293.25268
 51
0.9996032
  0
ARC
  8
0-0
  6
CONTINUOUS
 62
    7
 10
24789.625
 20
28614.458
 40
1114.0389
 50
280.26937
 51
342.3142
  0
ARC
  8
0-0
  6
CONTINUOUS
 62
    7
 10
24820.148
 20
28415.784
 40
909.86397
 50
281.56053
 51
348.74494
  0
ARC
  8
0-0
  6
CONTINUOUS
 62
    7
 10
24772.096
 20
28617.772
 40
1117.4609
 50
281.39132
 51
342.19148
  0
ARC
  8
0-0
  6
CONTINUOUS
 62
    7
 10
24268.042
 20
28329.762
 40
1009.399
 50
312.50245
 51
352.51103
  0
ARC
  8
0-0
  6
CONTINUOUS
 62
    7
 10
24475.104
 20
27811.377
 40
493.95002
 50
321.03321
 51
357.8493
  0
ARC
  8
0-0
  6
CONTINUOUS
 62
    7
 10
24441.729
 20
27838.635
 40
537.04398
 50
321.01118
 51
355.52256
  0
ARC
  8
0-0
  6
CONTINUOUS
 62
    7
 10
25410.994
 20
27644.038
 40
47.160994
 50
346.65277
 51
87.564666
  0
ARC
  8
0-0
  6
CONTINUOUS
 62
    7
 10
25136.594
 20
27843.086
 40
449.38496
 50
214.96012
 51
229.62359
  0
ARC
  8
0-0
  6
CONTINUOUS
 62
    7
 10
24581.72
 20
27843.086
 40
449.38496
 50
310.37638
 51
325.03985
  0
ARC
  8
0-0
  6
CONTINUOUS
 62
    7
 10
24763.376
 20
28610.409
 40
1115.05
 50
275.63331
 51
281.63357
  0
ARC
  8
0-0
  6
CONTINUOUS
 62
    7
 10
24926.379
 20
27543.735
 40
48.341995
 50
60.360961
 51
100.85014
  0
ARC
  8
0-0
  6
CONTINUOUS
 62
    7
 10
25112.294
 20
27535.56
 40
17.263997
 50
342.10176
 51
61.366683
  0
ARC
  8
0-0
  6
CONTINUOUS
 62
    7
 10
24700.556
 20
27760.095
 40
1678.145
 50
34.649902
 51
66.212921
  0
ARC
  8
0-0
  6
CONTINUOUS
 62
    7
 10
24568.495
 20
27633.049
 40
1837.878
 50
35.39006
 51
55.61383
  0
ARC
  8
0-0
  6
CONTINUOUS
 62
    7
 10
24560.114
 20
27624.539
 40
1829.9956
 50
35.453857
 51
55.56018
  0
ARC
  8
0-0
  6
CONTINUOUS
 62
    7
 10
24530.956
 20
28410.815
 40
764.535
 50
352.41789
 51
8.8518524
  0
ARC
  8
0-0
  6
CONTINUOUS
 62
    7
 10
24162.426
 20
28258.093
 40
1422.9028
 50
6.5045471
 51
25.143539
  0
ARC
  8
0-0
  6
CONTINUOUS
 62
    7
 10
24489.683
 20
28334.602
 40
1076.985
 50
4.5098419
 51
25.588958
  0
ARC
  8
0-0
  6
CONTINUOUS
 62
    7
 10
24486.481
 20
28419.287
 40
1454.409
 50
354.68072
 51
5.3192596
  0
ARC
  8
0-0
  6
CONTINUOUS
 62
    7
 10
24223.279
 20
28419.287
 40
1707.0008
 50
355.28941
 51
4.7105712
  0
ARC
  8
0-0
  6
CONTINUOUS
 62
    7
 10
25400.251
 20
28412.802
 40
471.05297
 50
343.11857
 51
18.140319
  0
ARC
  8
0-0
  6
CONTINUOUS
 62
    7
 10
25385.262
 20
28412.802
 40
471.05297
 50
343.11857
 51
18.140319
  0
ARC
  8
0-0
  6
CONTINUOUS
 62
    7
 10
24647.154
 20
28417.744
 40
1188.9309
 50
353.15383
 51
6.8461456
  0
ARC
  8
0-0
  6
CONTINUOUS
 62
    7
 10
24636.067
 20
28417.744
 40
1188.9309
 50
353.15383
 51
6.8461456
  0
ARC
  8
0-0
  6
CONTINUOUS
 62
    7
 10
24540.037
 20
28417.744
 40
1188.9309
 50
354.79748
 51
5.3433075
  0
ARC
  8
0-0
  6
CONTINUOUS
 62
    7
 10
25471.518
 20
28417.296
 40
68.331997
 50
296.39907
 51
1.662323
  0
ARC
  8
0-0
  6
CONTINUOUS
 62
    7
 10
25395.677
 20
28417.296
 40
68.331997
 50
309.30566
 51
1.662323
  0
ARC
  8
0-0
  6
CONTINUOUS
 62
    7
 10
22720.511
 20
27802.814
 40
2779.7829
 50
16.986801
 51
27.841415
  0
ARC
  8
0-0
  6
CONTINUOUS
 62
    7
 10
22891.98
 20
27907.243
 40
2485.0281
 50
25.253845
 51
30.746963
  0
ARC
  8
0-0
  6
CONTINUOUS
 62
    7
 10
22252.743
 20
27607.744
 40
3225.3571
 50
25.770034
 51
29.608169
  0
ARC
  8
0-0
  6
CONTINUOUS
 62
    7
 10
22249.243
 20
27601.617
 40
3225.3571
 50
25.770034
 51
29.608169
  0
ARC
  8
0-0
  6
CONTINUOUS
 62
    7
 10
22691.84
 20
27778.923
 40
2779.7829
 50
17.62445
 51
27.51477
  0
ARC
  8
0-0
  6
CONTINUOUS
 62
    7
 10
22687.059
 20
27769.362
 40
2779.7829
 50
17.58966
 51
27.558135
  0
ARC
  8
0-0
  6
CONTINUOUS
 62
    7
 10
23770.419
 20
28265.281
 40
1538.6389
 50
14.026794
 51
25.154174
  0
ARC
  8
0-0
  6
CONTINUOUS
 62
    7
 10
25053.282
 20
29199.197
 40
4.2129998
 50
29.608169
 51
180
  0
ARC
  8
0-0
  6
CONTINUOUS
 62
    7
 10
24645.915
 20
28011.388
 40
1307.4118
 50
24.784698
 51
47.025695
  0
ARC
  8
0-0
  6
CONTINUOUS
 62
    7
 10
24568.74
 20
28116.797
 40
1226.2259
 50
23.188034
 51
45.46022
  0
ARC
  8
0-0
  6
CONTINUOUS
 62
    7
 10
24655.244
 20
28023.829
 40
1307.4118
 50
24.185623
 51
47.06401
  0
ARC
  8
0-0
  6
CONTINUOUS
 62
    7
 10
25639.932
 20
28419.287
 40
530.65405
 50
326.23332
 51
33.766662
  0
CIRCLE
  8
0-0
  6
CONTINUOUS
 62
    7
 10
26081.062
 20
28419.287
 40
77.106995
  0
CIRCLE
  8
0-0
  6
CONTINUOUS
 62
    7
 10
26081.062
 20
28419.287
 40
35.392995
  0
CIRCLE
  8
0-0
  6
CONTINUOUS
 62
    7
 10
24373.282
 20
30686.132
 40
63.202001
  0
ARC
  8
0-0
  6
CONTINUOUS
 62
    7
 10
24374.602
 20
30686.132
 40
101.124
 50
126.86988
 51
233.13009
  0
CIRCLE
  8
0-0
  6
CONTINUOUS
 62
    7
 10
24374.602
 20
30686.132
 40
35.675997
  0
ARC
  8
0-0
  6
CONTINUOUS
 62
    7
 10
24740.24
 20
30686.132
 40
100.91099
 50
141.23123
 51
180
  0
ARC
  8
0-0
  6
CONTINUOUS
 62
    7
 10
24605.411
 20
30686.132
 40
100.91099
 50
141.23123
 51
180
  0
ARC
  8
0-0
  6
CONTINUOUS
 62
    7
 10
24609.152
 20
30688.12
 40
68.331997
 50
116.39907
 51
181.66232
  0
ARC
  8
0-0
  6
CONTINUOUS
 62
    7
 10
24684.997
 20
30688.12
 40
68.331997
 50
116.39907
 51
181.66232
  0
ARC
  8
0-0
  6
CONTINUOUS
 62
    7
 10
24753.801
 20
30686.132
 40
101.62799
 50
136.98027
 51
180
  0
ARC
  8
0-0
  6
CONTINUOUS
 62
    7
 10
24618.965
 20
30686.132
 40
101.62799
 50
136.98027
 51
180
  0
ARC
  8
0-0
  6
CONTINUOUS
 62
    7
 10
24753.801
 20
30686.132
 40
101.62799
 50
180
 51
223.01971
  0
ARC
  8
0-0
  6
CONTINUOUS
 62
    7
 10
24740.24
 20
30686.132
 40
100.91099
 50
180
 51
218.76875
  0
ARC
  8
0-0
  6
CONTINUOUS
 62
    7
 10
24605.411
 20
30686.132
 40
100.91099
 50
180
 51
218.76875
  0
ARC
  8
0-0
  6
CONTINUOUS
 62
    7
 10
24618.965
 20
30686.132
 40
101.62799
 50
180
 51
217.96894
  0
ARC
  8
0-0
  6
CONTINUOUS
 62
    7
 10
24668.249
 20
30869.485
 40
42.134999
 50
151.02172
 51
180
  0
CIRCLE
  8
0-0
  6
CONTINUOUS
 62
    7
 10
24551.18
 20
30884.253
 40
20.106
  0
ARC
  8
0-0
  6
CONTINUOUS
 62
    7
 10
24540.387
 20
30884.253
 40
20.106
 50
90
 51
269.00842
  0
CIRCLE
  8
0-0
  6
CONTINUOUS
 62
    7
 10
25345.029
 20
30686.132
 40
63.202001
  0
CIRCLE
  8
0-0
  6
CONTINUOUS
 62
    7
 10
25343.706
 20
30686.132
 40
35.675997
  0
ARC
  8
0-0
  6
CONTINUOUS
 62
    7
 10
24978.07
 20
30686.132
 40
100.91099
 50
0
 51
38.768753
  0
ARC
  8
0-0
  6
CONTINUOUS
 62
    7
 10
25112.903
 20
30686.132
 40
100.91099
 50
0
 51
38.768753
  0
ARC
  8
0-0
  6
CONTINUOUS
 62
    7
 10
25109.158
 20
30688.12
 40
68.331997
 50
358.33766
 51
63.600906
  0
ARC
  8
0-0
  6
CONTINUOUS
 62
    7
 10
25033.317
 20
30688.12
 40
68.331997
 50
358.33766
 51
63.600906
  0
ARC
  8
0-0
  6
CONTINUOUS
 62
    7
 10
24964.513
 20
30686.132
 40
101.62799
 50
0
 51
43.019714
  0
ARC
  8
0-0
  6
CONTINUOUS
 62
    7
 10
25099.346
 20
30686.132
 40
101.62799
 50
0
 51
43.019714
  0
ARC
  8
0-0
  6
CONTINUOUS
 62
    7
 10
24964.513
 20
30686.132
 40
101.62799
 50
316.98027
 51
0
  0
ARC
  8
0-0
  6
CONTINUOUS
 62
    7
 10
24978.07
 20
30686.132
 40
100.91099
 50
321.23123
 51
0
  0
ARC
  8
0-0
  6
CONTINUOUS
 62
    7
 10
25112.903
 20
30686.132
 40
100.91099
 50
321.23123
 51
0
  0
ARC
  8
0-0
  6
CONTINUOUS
 62
    7
 10
25099.346
 20
30686.132
 40
101.62799
 50
322.03103
 51
0
  0
ARC
  8
0-0
  6
CONTINUOUS
 62
    7
 10
24931.618
 20
30869.961
 40
42.134999
 50
152.2156
 51
180
  0
ARC
  8
0-0
  6
CONTINUOUS
 62
    7
 10
24915.027
 20
30869.485
 40
42.134999
 50
151.02172
 51
180
  0
ARC
  8
0-0
  6
CONTINUOUS
 62
    7
 10
24873.61
 20
30968.647
 40
42.134999
 50
331.02172
 51
27.784378
  0
ARC
  8
0-0
  6
CONTINUOUS
 62
    7
 10
24888.105
 20
30968.15
 40
42.134999
 50
332.2156
 51
27.784378
  0
ARC
  8
0-0
  6
CONTINUOUS
 62
    7
 10
25013.394
 20
30869.485
 40
42.134999
 50
0
 51
28.978256
  0
ARC
  8
0-0
  6
CONTINUOUS
 62
    7
 10
25343.706
 20
30686.132
 40
101.124
 50
306.86988
 51
53.130096
  0
ARC
  8
0-0
  6
CONTINUOUS
 62
    7
 10
23585.617
 20
24822.858
 40
6916.4416
 50
21.460098
 51
30.784851
  0
ARC
  8
0-0
  6
CONTINUOUS
 62
    7
 10
28527.798
 20
27564.788
 40
1117.4609
 50
141.1285
 51
201.92866
  0
ARC
  8
0-0
  6
CONTINUOUS
 62
    7
 10
28515.396
 20
27577.614
 40
1114.0389
 50
141.00576
 51
203.03782
  0
ARC
  8
0-0
  6
CONTINUOUS
 62
    7
 10
28887.55
 20
27861.637
 40
1581.135
 50
160.57289
 51
207.0539
  0
ARC
  8
0-0
  6
CONTINUOUS
 62
    7
 10
31767.931
 20
28070.516
 40
3601.2611
 50
173.37922
 51
191.24153
  0
ARC
  8
0-0
  6
CONTINUOUS
 62
    7
 10
34672.825
 20
27394.757
 40
6370.6993
 50
170.17181
 51
180.30178
  0
ARC
  8
0-0
  6
CONTINUOUS
 62
    7
 10
34689.305
 20
27398.288
 40
6370.6993
 50
170.17181
 51
180.34445
  0
ARC
  8
0-0
  6
CONTINUOUS
 62
    7
 10
31751.077
 20
28070.516
 40
3601.2611
 50
173.37922
 51
191.26028
  0
ARC
  8
0-0
  6
CONTINUOUS
 62
    7
 10
36428.5
 20
26585.273
 40
8146.6987
 50
168.11701
 51
174.54318
  0
ARC
  8
0-0
  6
CONTINUOUS
 62
    7
 10
31110.325
 20
28786.525
 40
3164.4701
 50
188.47091
 51
202.30505
  0
ARC
  8
0-0
  6
CONTINUOUS
 62
    7
 10
34699.481
 20
24845.395
 40
6916.4416
 50
149.75572
 51
156.82334
  0
ARC
  8
0-0
  6
CONTINUOUS
 62
    7
 10
34789.635
 20
24822.858
 40
6916.4416
 50
149.21513
 51
158.53988
  0
ARC
  8
0-0
  6
CONTINUOUS
 62
    7
 10
34754.224
 20
24800.322
 40
6916.4416
 50
149.09509
 51
158.28973
  0
ARC
  8
0-0
  6
CONTINUOUS
 62
    7
 10
31055.582
 20
28763.988
 40
3164.4701
 50
186.82095
 51
206.18923
  0
ARC
  8
0-0
  6
CONTINUOUS
 62
    7
 10
29293.213
 20
27379.395
 40
975.14402
 50
181.13871
 51
193.72647
  0
ARC
  8
0-0
  6
CONTINUOUS
 62
    7
 10
27436.596
 20
27254.588
 40
17.263997
 50
61.953292
 51
141.21821
  0
ARC
  8
0-0
  6
CONTINUOUS
 62
    7
 10
27485.081
 20
27145.495
 40
6.4089992
 50
207.99179
 51
18.398864
  0
ARC
  8
0-0
  6
CONTINUOUS
 62
    7
 10
27363.166
 20
27563.777
 40
47.160994
 50
35.755325
 51
136.6672
  0
ARC
  8
0-0
  6
CONTINUOUS
 62
    7
 10
29588.869
 20
27732.897
 40
1419.7547
 50
194.91517
 51
204.32829
  0
ARC
  8
0-0
  6
CONTINUOUS
 62
    7
 10
29363.574
 20
27249.223
 40
1012.0228
 50
174.14607
 51
185.74
  0
ARC
  8
0-0
  6
CONTINUOUS
 62
    7
 10
28398.127
 20
28463.864
 40
68.331997
 50
171.87767
 51
224.23431
  0
ARC
  8
0-0
  6
CONTINUOUS
 62
    7
 10
27885.215
 20
28180.921
 40
530.65405
 50
89.553314
 51
157.08666
  0
CIRCLE
  8
0-0
  6
CONTINUOUS
 62
    7
 10
27642.892
 20
28549.549
 40
77.106995
  0
ARC
  8
0-0
  6
CONTINUOUS
 62
    7
 10
28518.818
 20
27217.084
 40
1454.409
 50
118.00073
 51
128.63925
  0
ARC
  8
0-0
  6
CONTINUOUS
 62
    7
 10
28663.404
 20
26997.151
 40
1707.0008
 50
118.6094
 51
128.03057
  0
ARC
  8
0-0
  6
CONTINUOUS
 62
    7
 10
28496.684
 20
28444.802
 40
325.43095
 50
119.13215
 51
172.77543
  0
ARC
  8
0-0
  6
CONTINUOUS
 62
    7
 10
28518.92
 20
28433.589
 40
332.34396
 50
124.41481
 51
170.973
  0
ARC
  8
0-0
  6
CONTINUOUS
 62
    7
 10
28011.46
 20
27977.093
 40
471.05297
 50
105.17965
 51
140.20141
  0
ARC
  8
0-0
  6
CONTINUOUS
 62
    7
 10
28019.697
 20
27964.561
 40
471.05297
 50
105.17965
 51
140.20141
  0
ARC
  8
0-0
  6
CONTINUOUS
 62
    7
 10
28095.668
 20
27140.872
 40
1307.4118
 50
97.380828
 51
99.134353
  0
ARC
  8
0-0
  6
CONTINUOUS
 62
    7
 10
28090.398
 20
27126.244
 40
1307.4118
 50
97.332336
 51
98.535293
  0
ARC
  8
0-0
  6
CONTINUOUS
 62
    7
 10
28322.769
 20
28472.395
 40
68.331997
 50
171.87767
 51
237.14091
  0
CIRCLE
  8
0-0
  6
CONTINUOUS
 62
    7
 10
27642.892
 20
28549.549
 40
35.392995
  0
ARC
  8
0-0
  6
CONTINUOUS
 62
    7
 10
27850.398
 20
27033.871
 40
1678.145
 50
76.627899
 51
88.670089
  0
ARC
  8
0-0
  6
CONTINUOUS
 62
    7
 10
27814.273
 20
26842.056
 40
1829.9956
 50
78.315093
 51
87.866134
  0
ARC
  8
0-0
  6
CONTINUOUS
 62
    7
 10
27816.782
 20
26853.734
 40
1837.878
 50
77.670867
 51
87.929931
  0
ARC
  8
0-0
  6
CONTINUOUS
 62
    7
 10
28737.173
 20
28408.4
 40
349.43598
 50
125.49188
 51
167.80755
  0
ARC
  8
0-0
  6
CONTINUOUS
 62
    7
 10
28843.87
 20
28335.533
 40
457.14695
 50
127.92228
 51
160.81901
  0
ARC
  8
0-0
  6
CONTINUOUS
 62
    7
 10
28359.006
 20
28449.978
 40
35.188999
 50
253.774
 51
327.11277
  0
ARC
  8
0-0
  6
CONTINUOUS
 62
    7
 10
23702.427
 20
27394.757
 40
6370.6993
 50
359.69819
 51
9.8281707
  0
ARC
  8
0-0
  6
CONTINUOUS
 62
    7
 10
23685.948
 20
27398.288
 40
6370.6993
 50
359.65553
 51
9.8281707
  0
ARC
  8
0-0
  6
CONTINUOUS
 62
    7
 10
21946.753
 20
26585.273
 40
8146.6987
 50
5.4568023
 51
11.882965
  0
ARC
  8
0-0
  6
CONTINUOUS
 62
    7
 10
23675.768
 20
24845.395
 40
6916.4416
 50
23.176635
 51
30.244262
  0
ARC
  8
0-0
  6
CONTINUOUS
 62
    7
 10
23621.035
 20
24800.322
 40
6916.4416
 50
21.71025
 51
30.904891
  0
ARC
  8
0-0
  6
CONTINUOUS
 62
    7
 10
26607.318
 20
28070.516
 40
3601.2611
 50
348.75845
 51
6.620758
  0
ARC
  8
0-0
  6
CONTINUOUS
 62
    7
 10
26624.171
 20
28070.516
 40
3601.2611
 50
348.7397
 51
6.620758
  0
ARC
  8
0-0
  6
CONTINUOUS
 62
    7
 10
27264.931
 20
28786.525
 40
3164.4701
 50
337.69493
 51
351.52906
  0
ARC
  8
0-0
  6
CONTINUOUS
 62
    7
 10
27319.667
 20
28763.988
 40
3164.4701
 50
333.81074
 51
353.17903
  0
ARC
  8
0-0
  6
CONTINUOUS
 62
    7
 10
29847.462
 20
27564.788
 40
1117.4609
 50
338.07131
 51
38.871475
  0
ARC
  8
0-0
  6
CONTINUOUS
 62
    7
 10
29859.864
 20
27577.614
 40
1114.0389
 50
336.96215
 51
38.994216
  0
ARC
  8
0-0
  6
CONTINUOUS
 62
    7
 10
29487.705
 20
27861.637
 40
1581.135
 50
332.94607
 51
19.427093
  0
ARC
  8
0-0
  6
CONTINUOUS
 62
    7
 10
29082.036
 20
27379.395
 40
975.14402
 50
346.27351
 51
358.86126
  0
ARC
  8
0-0
  6
CONTINUOUS
 62
    7
 10
29011.678
 20
27249.223
 40
1012.0228
 50
354.25997
 51
5.8539123
  0
ARC
  8
0-0
  6
CONTINUOUS
 62
    7
 10
28786.387
 20
27732.897
 40
1419.7547
 50
335.67169
 51
345.0848
  0
ARC
  8
0-0
  6
CONTINUOUS
 62
    7
 10
30938.653
 20
27254.588
 40
17.263997
 50
38.781768
 51
118.04669
  0
ARC
  8
0-0
  6
CONTINUOUS
 62
    7
 10
30890.174
 20
27145.495
 40
6.4089992
 50
161.60112
 51
332.00819
  0
ARC
  8
0-0
  6
CONTINUOUS
 62
    7
 10
31012.094
 20
27563.777
 40
47.160994
 50
43.332778
 51
144.24465
  0
ARC
  8
0-0
  6
CONTINUOUS
 62
    7
 10
30490.034
 20
28180.921
 40
530.65405
 50
22.913314
 51
90.44667
  0
CIRCLE
  8
0-0
  6
CONTINUOUS
 62
    7
 10
30732.368
 20
28549.549
 40
77.106995
  0
CIRCLE
  8
0-0
  6
CONTINUOUS
 62
    7
 10
30732.368
 20
28549.549
 40
35.392995
  0
ARC
  8
0-0
  6
CONTINUOUS
 62
    7
 10
29856.434
 20
27217.084
 40
1454.409
 50
51.360733
 51
61.999252
  0
ARC
  8
0-0
  6
CONTINUOUS
 62
    7
 10
29711.849
 20
26997.151
 40
1707.0008
 50
51.969406
 51
61.390579
  0
ARC
  8
0-0
  6
CONTINUOUS
 62
    7
 10
29878.569
 20
28444.802
 40
325.43095
 50
7.2245483
 51
60.867828
  0
ARC
  8
0-0
  6
CONTINUOUS
 62
    7
 10
29856.336
 20
28433.589
 40
332.34396
 50
9.0269775
 51
55.585174
  0
ARC
  8
0-0
  6
CONTINUOUS
 62
    7
 10
29638.079
 20
28408.4
 40
349.43598
 50
12.192428
 51
54.508102
  0
ARC
  8
0-0
  6
CONTINUOUS
 62
    7
 10
29531.383
 20
28335.533
 40
457.14695
 50
19.180969
 51
52.077697
  0
ARC
  8
0-0
  6
CONTINUOUS
 62
    7
 10
30016.246
 20
28449.978
 40
35.188999
 50
212.8872
 51
286.22598
  0
ARC
  8
0-0
  6
CONTINUOUS
 62
    7
 10
29977.122
 20
28463.864
 40
68.331997
 50
315.76567
 51
8.1223144
  0
ARC
  8
0-0
  6
CONTINUOUS
 62
    7
 10
30363.789
 20
27977.093
 40
471.05297
 50
39.798568
 51
74.820327
  0
ARC
  8
0-0
  6
CONTINUOUS
 62
    7
 10
30355.555
 20
27964.561
 40
471.05297
 50
39.798568
 51
74.820327
  0
ARC
  8
0-0
  6
CONTINUOUS
 62
    7
 10
30279.591
 20
27140.872
 40
1307.4118
 50
80.865631
 51
82.619155
  0
ARC
  8
0-0
  6
CONTINUOUS
 62
    7
 10
30284.858
 20
27126.244
 40
1307.4118
 50
81.464691
 51
82.667648
  0
ARC
  8
0-0
  6
CONTINUOUS
 62
    7
 10
30052.48
 20
28472.395
 40
68.331997
 50
302.85906
 51
8.1223144
  0
ARC
  8
0-0
  6
CONTINUOUS
 62
    7
 10
30524.854
 20
27033.871
 40
1678.145
 50
91.329895
 51
103.37208
  0
ARC
  8
0-0
  6
CONTINUOUS
 62
    7
 10
30560.979
 20
26842.056
 40
1829.9956
 50
92.13385
 51
101.68489
  0
ARC
  8
0-0
  6
CONTINUOUS
 62
    7
 10
30558.467
 20
26853.734
 40
1837.878
 50
92.070053
 51
102.32911
  0
ARC
  8
0-0
  6
CONTINUOUS
 62
    7
 10
29441.368
 20
30685.222
 40
100.91099
 50
317.81671
 51
0
  0
ARC
  8
0-0
  6
CONTINUOUS
 62
    7
 10
29441.368
 20
30685.222
 40
100.91099
 50
0
 51
38.768753
  0
CIRCLE
  8
0-0
  6
CONTINUOUS
 62
    7
 10
28879.652
 20
30883.329
 40
20.106
  0
ARC
  8
0-0
  6
CONTINUOUS
 62
    7
 10
28868.856
 20
30883.329
 40
20.106
 50
90
 51
269.00842
  0
ARC
  8
0-0
  6
CONTINUOUS
 62
    7
 10
28947.438
 20
30685.222
 40
101.62799
 50
136.98027
 51
180
  0
ARC
  8
0-0
  6
CONTINUOUS
 62
    7
 10
28947.438
 20
30685.222
 40
101.62799
 50
180
 51
211.89955
  0
CIRCLE
  8
0-0
  6
CONTINUOUS
 62
    7
 10
28701.751
 20
30685.222
 40
63.202001
  0
ARC
  8
0-0
  6
CONTINUOUS
 62
    7
 10
28703.078
 20
30685.222
 40
101.124
 50
126.86988
 51
233.13009
  0
ARC
  8
0-0
  6
CONTINUOUS
 62
    7
 10
28933.88
 20
30685.222
 40
100.91099
 50
180
 51
222.18327
  0
CIRCLE
  8
0-0
  6
CONTINUOUS
 62
    7
 10
28703.078
 20
30685.222
 40
35.675997
  0
ARC
  8
0-0
  6
CONTINUOUS
 62
    7
 10
28933.88
 20
30685.222
 40
100.91099
 50
141.23123
 51
180
  0
ARC
  8
0-0
  6
CONTINUOUS
 62
    7
 10
29082.27
 20
30685.222
 40
101.62799
 50
180
 51
223.01971
  0
ARC
  8
0-0
  6
CONTINUOUS
 62
    7
 10
29068.713
 20
30685.222
 40
100.91099
 50
180
 51
218.76875
  0
ARC
  8
0-0
  6
CONTINUOUS
 62
    7
 10
29292.982
 20
30685.222
 40
101.62799
 50
316.98027
 51
0
  0
ARC
  8
0-0
  6
CONTINUOUS
 62
    7
 10
29306.539
 20
30685.222
 40
100.91099
 50
321.23123
 51
0
  0
ARC
  8
0-0
  6
CONTINUOUS
 62
    7
 10
29427.815
 20
30685.222
 40
101.62799
 50
328.10043
 51
0
  0
ARC
  8
0-0
  6
CONTINUOUS
 62
    7
 10
29260.09
 20
30869.037
 40
42.134999
 50
152.2156
 51
180
  0
ARC
  8
0-0
  6
CONTINUOUS
 62
    7
 10
29243.496
 20
30868.575
 40
42.134999
 50
151.02172
 51
180
  0
ARC
  8
0-0
  6
CONTINUOUS
 62
    7
 10
29202.079
 20
30967.737
 40
42.134999
 50
331.02172
 51
27.784378
  0
ARC
  8
0-0
  6
CONTINUOUS
 62
    7
 10
29216.574
 20
30967.233
 40
42.134999
 50
332.2156
 51
27.784378
  0
ARC
  8
0-0
  6
CONTINUOUS
 62
    7
 10
28996.721
 20
30868.575
 40
42.134999
 50
151.02172
 51
180
  0
ARC
  8
0-0
  6
CONTINUOUS
 62
    7
 10
29341.863
 20
30868.575
 40
42.134999
 50
0
 51
28.978256
  0
ARC
  8
0-0
  6
CONTINUOUS
 62
    7
 10
29068.713
 20
30685.222
 40
100.91099
 50
141.23123
 51
180
  0
ARC
  8
0-0
  6
CONTINUOUS
 62
    7
 10
29082.27
 20
30685.222
 40
101.62799
 50
136.98027
 51
180
  0
ARC
  8
0-0
  6
CONTINUOUS
 62
    7
 10
28938.318
 20
30688.022
 40
68.331997
 50
109.93907
 51
175.20231
  0
ARC
  8
0-0
  6
CONTINUOUS
 62
    7
 10
29013.68
 20
30679.49
 40
68.331997
 50
114.86987
 51
175.20231
  0
ARC
  8
0-0
  6
CONTINUOUS
 62
    7
 10
29306.539
 20
30685.222
 40
100.91099
 50
0
 51
38.768753
  0
ARC
  8
0-0
  6
CONTINUOUS
 62
    7
 10
29292.982
 20
30685.222
 40
101.62799
 50
0
 51
43.019714
  0
ARC
  8
0-0
  6
CONTINUOUS
 62
    7
 10
29427.815
 20
30685.222
 40
101.62799
 50
0
 51
43.019714
  0
ARC
  8
0-0
  6
CONTINUOUS
 62
    7
 10
29436.934
 20
30688.022
 40
68.331997
 50
4.7976684
 51
70.060913
  0
ARC
  8
0-0
  6
CONTINUOUS
 62
    7
 10
29361.569
 20
30679.49
 40
68.331997
 50
4.7976684
 51
65.130111
  0
CIRCLE
  8
0-0
  6
CONTINUOUS
 62
    7
 10
29673.501
 20
30685.222
 40
63.202001
  0
ARC
  8
0-0
  6
CONTINUOUS
 62
    7
 10
29672.182
 20
30685.222
 40
101.124
 50
306.86988
 51
53.130096
  0
CIRCLE
  8
0-0
  6
CONTINUOUS
 62
    7
 10
29672.182
 20
30685.222
 40
35.675997
  0
CIRCLE
  8
0-0
  6
CONTINUOUS
 62
    7
 10
18500.709
 20
34632.343
 40
107.26448
  0
CIRCLE
  8
0-0
  6
CONTINUOUS
 62
    7
 10
18893.276
 20
34632.343
 40
56.53304
  0
CIRCLE
  8
0-0
  6
CONTINUOUS
 62
    7
 10
18893.276
 20
34632.343
 40
159.1303
  0
CIRCLE
  8
0-0
  6
CONTINUOUS
 62
    7
 10
18696.992
 20
35447.98
 40
278.70495
  0
CIRCLE
  8
0-0
  6
CONTINUOUS
 62
    7
 10
18696.992
 20
35447.98
 40
159.1303
  0
ARC
  8
0-0
  6
CONTINUOUS
 62
    7
 10
18696.992
 20
36386.401
 40
106.43659
 50
90
 51
270
  0
ARC
  8
0-0
  6
CONTINUOUS
 62
    7
 10
18696.992
 20
36386.401
 40
106.43659
 50
270
 51
90
  0
CIRCLE
  8
0-0
  6
CONTINUOUS
 62
    7
 10
10588.884
 20
31591.475
 40
321.53997
  0
CIRCLE
  8
0-0
  6
CONTINUOUS
 62
    7
 10
10122.832
 20
31808.368
 40
84.170126
  0
CIRCLE
  8
0-0
  6
CONTINUOUS
 62
    7
 10
10589.484
 20
32229.015
 40
84.170126
  0
CIRCLE
  8
0-0
  6
CONTINUOUS
 62
    7
 10
11102.144
 20
31584.903
 40
84.170126
  0
CIRCLE
  8
0-0
  6
CONTINUOUS
 62
    7
 10
8880.056
 20
25187.839
 40
84.170126
  0
CIRCLE
  8
0-0
  6
CONTINUOUS
 62
    7
 10
8879.2581
 20
25181.32
 40
357.88833
  0
CIRCLE
  8
0-0
  6
CONTINUOUS
 62
    7
 10
10642.356
 20
25821.859
 40
130.46189
  0
CIRCLE
  8
0-0
  6
CONTINUOUS
 62
    7
 10
9007.1546
 20
27382.513
 40
102.24515
  0
CIRCLE
  8
0-0
  6
CONTINUOUS
 62
    7
 10
12202.187
 20
27328.165
 40
102.24515
  0
CIRCLE
  8
0-0
  6
CONTINUOUS
 62
    7
 10
10565.971
 20
31599.391
 40
100.15418
  0
CIRCLE
  8
0-0
  6
CONTINUOUS
 62
    7
 10
15619.334
 20
31777.047
 40
321.53997
  0
CIRCLE
  8
0-0
  6
CONTINUOUS
 62
    7
 10
15153.284
 20
31993.933
 40
84.170126
  0
CIRCLE
  8
0-0
  6
CONTINUOUS
 62
    7
 10
15619.936
 20
32414.58
 40
84.170126
  0
CIRCLE
  8
0-0
  6
CONTINUOUS
 62
    7
 10
16132.596
 20
31770.475
 40
84.170126
  0
CIRCLE
  8
0-0
  6
CONTINUOUS
 62
    7
 10
14837.797
 20
30692.564
 40
84.170126
  0
CIRCLE
  8
0-0
  6
CONTINUOUS
 62
    7
 10
14831.225
 20
30692.564
 40
357.88833
  0
CIRCLE
  8
0-0
  6
CONTINUOUS
 62
    7
 10
15560.781
 20
30081.319
 40
60.596127
  0
CIRCLE
  8
0-0
  6
CONTINUOUS
 62
    7
 10
15619.936
 20
29088.858
 40
130.46189
  0
CIRCLE
  8
0-0
  6
CONTINUOUS
 62
    7
 10
13871.634
 20
27656.045
 40
102.24515
  0
CIRCLE
  8
0-0
  6
CONTINUOUS
 62
    7
 10
17367.037
 20
27656.045
 40
102.24515
  0
CIRCLE
  8
0-0
  6
CONTINUOUS
 62
    7
 10
15596.423
 20
31784.963
 40
100.15418
  0
ARC
  8
0-0
  6
CONTINUOUS
 62
    7
 10
9574.8619
 20
25830.947
 40
60.596127
 50
165.44477
 51
3.2541809
  0
CIRCLE
  8
0-0
  6
CONTINUOUS
 62
    7
 10
18779.231
 20
21777.102
 40
119.05204
  0
CIRCLE
  8
0-0
  6
CONTINUOUS
 62
    7
 10
17724.578
 20
18070.026
 40
119.05204
  0
CIRCLE
  8
0-0
  6
CONTINUOUS
 62
    7
 10
20220.184
 20
21777.102
 40
119.05204
  0
CIRCLE
  8
0-0
  6
CONTINUOUS
 62
    7
 10
21273.311
 20
18068.245
 40
119.05204
  0
CIRCLE
  8
0-0
  6
CONTINUOUS
 62
    7
 10
19500.447
 20
16895.865
 40
152.9444
  0
CIRCLE
  8
0-0
  6
CONTINUOUS
 62
    7
 10
25294.566
 20
22098.416
 40
119.05204
  0
CIRCLE
  8
0-0
  6
CONTINUOUS
 62
    7
 10
24241.435
 20
18389.561
 40
119.05204
  0
CIRCLE
  8
0-0
  6
CONTINUOUS
 62
    7
 10
26735.515
 20
22098.416
 40
119.05204
  0
CIRCLE
  8
0-0
  6
CONTINUOUS
 62
    7
 10
27788.643
 20
18389.561
 40
119.05204
  0
CIRCLE
  8
0-0
  6
CONTINUOUS
 62
    7
 10
26015.033
 20
19847.544
 40
152.9444
  0
CIRCLE
  8
0-0
  6
CONTINUOUS
 62
    7
 10
21274.83
 20
18070.026
 40
119.05204
  0
ARC
  8
0-0
  6
CONTINUOUS
 62
    7
 10
27630.139
 20
34408.41
 40
14.400048
 50
211.47447
 51
297.95013
  0
ARC
  8
0-0
  6
CONTINUOUS
 62
    7
 10
27416.421
 20
34771.56
 40
21.600085
 50
221.8605
 51
138.20214
  0
ARC
  8
0-0
  6
CONTINUOUS
 62
    7
 10
26849.89
 20
34408.361
 40
14.400048
 50
242.05497
 51
328.50686
  0
ARC
  8
0-0
  6
CONTINUOUS
 62
    7
 10
27063.622
 20
34771.56
 40
21.600085
 50
41.797958
 51
318.13938
  0
ARC
  8
0-0
  6
CONTINUOUS
 62
    7
 10
27240.015
 20
36269.223
 40
547.2013
 50
179.99996
 51
359.99978
  0
CIRCLE
  8
0-0
  6
CONTINUOUS
 62
    7
 10
27240.015
 20
36845.165
 40
41.400113
  0
CIRCLE
  8
0-0
  6
CONTINUOUS
 62
    7
 10
27240.004
 20
35030.748
 40
100.8003
  0
CIRCLE
  8
0-0
  6
CONTINUOUS
 62
    7
 10
27240.015
 20
36269.223
 40
93.600269
  0
ARC
  8
0-0
  6
CONTINUOUS
 62
    7
 10
27239.997
 20
36903.243
 40
57.600174
 50
42.130783
 51
137.87036
  0
ARC
  8
0-0
  6
CONTINUOUS
 62
    7
 10
26750.402
 20
36161.025
 40
57.600174
 50
180.01268
 51
194.04844
  0
ARC
  8
0-0
  6
CONTINUOUS
 62
    7
 10
27729.63
 20
36161.067
 40
57.600174
 50
345.9557
 51
359.99157
  0
ARC
  8
0-0
  6
CONTINUOUS
 62
    7
 10
27695.948
 20
36564.371
 40
57.600174
 50
10.305114
 51
90.000915
  0
ARC
  8
0-0
  6
CONTINUOUS
 62
    7
 10
27388.558
 20
34915.551
 40
86.400295
 50
269.99963
 51
345.96357
  0
ARC
  8
0-0
  6
CONTINUOUS
 62
    7
 10
27091.482
 20
34915.551
 40
86.400295
 50
194.03608
 51
269.99974
  0
ARC
  8
0-0
  6
CONTINUOUS
 62
    7
 10
27610.581
 20
36708.362
 40
86.400295
 50
222.1385
 51
269.99951
  0
ARC
  8
0-0
  6
CONTINUOUS
 62
    7
 10
27240.015
 20
36397.837
 40
144.00051
 50
64.653747
 51
115.34724
  0
ARC
  8
0-0
  6
CONTINUOUS
 62
    7
 10
27517.207
 20
34195.542
 40
144.00051
 50
180.00013
 51
6.4579162
  0
ARC
  8
0-0
  6
CONTINUOUS
 62
    7
 10
26962.822
 20
34195.542
 40
144.00051
 50
179.99996
 51
359.99978
  0
ARC
  8
0-0
  6
CONTINUOUS
 62
    7
 10
27686.426
 20
34397.106
 40
46.800801
 50
21.568313
 51
186.45773
  0
ARC
  8
0-0
  6
CONTINUOUS
 62
    7
 10
26793.618
 20
34397.106
 40
46.7997
 50
0.0049591
 51
158.4313
  0
ARC
  8
0-0
  6
CONTINUOUS
 62
    7
 10
27517.207
 20
34051.551
 40
331.20295
 50
270.00012
 51
21.568313
  0
ARC
  8
0-0
  6
CONTINUOUS
 62
    7
 10
26962.822
 20
34051.551
 40
331.20284
 50
158.4313
 51
269.99977
  0
CIRCLE
  8
0-0
  6
CONTINUOUS
 62
    7
 10
23945.289
 20
35892.767
 40
31.750174
  0
CIRCLE
  8
0-0
  6
CONTINUOUS
 62
    7
 10
23945.279
 20
34752.754
 40
42.500202
  0
CIRCLE
  8
0-0
  6
CONTINUOUS
 62
    7
 10
24376.782
 20
35730.775
 40
15.000084
  0
ARC
  8
0-0
  6
CONTINUOUS
 62
    7
 10
23945.289
 20
35892.767
 40
80.000437
 50
44.999954
 51
134.99983
  0
ARC
  8
0-0
  6
CONTINUOUS
 62
    7
 10
24376.782
 20
35730.775
 40
36.000187
 50
0
 51
89.999923
  0
CIRCLE
  8
0-0
  6
CONTINUOUS
 62
    7
 10
24222.782
 20
35730.775
 40
15.000084
  0
ARC
  8
0-0
  6
CONTINUOUS
 62
    7
 10
24196.844
 20
35796.776
 40
30.000134
 50
224.99972
 51
269.99963
  0
ARC
  8
0-0
  6
CONTINUOUS
 62
    7
 10
24057.175
 20
34698.771
 40
60.000316
 50
269.9999
 51
334.84156
  0
ARC
  8
0-0
  6
CONTINUOUS
 62
    7
 10
23833.385
 20
34698.771
 40
60.000316
 50
205.15802
 51
269.99963
  0
ARC
  8
0-0
  6
CONTINUOUS
 62
    7
 10
23537.782
 20
35513.561
 40
60.000316
 50
134.99972
 51
179.99957
  0
ARC
  8
0-0
  6
CONTINUOUS
 62
    7
 10
23537.775
 20
35328.171
 40
60.000316
 50
179.99957
 51
205.15783
  0
ARC
  8
0-0
  6
CONTINUOUS
 62
    7
 10
24352.782
 20
35328.164
 40
60.000316
 50
334.84184
 51
0.0001525
  0
ARC
  8
0-0
  6
CONTINUOUS
 62
    7
 10
23945.289
 20
34362.748
 40
72.50038
 50
141.01318
 51
179.99974
  0
ARC
  8
0-0
  6
CONTINUOUS
 62
    7
 10
23945.289
 20
34362.748
 40
242.50141
 50
116.90747
 51
179.99974
  0
ARC
  8
0-0
  6
CONTINUOUS
 62
    7
 10
23500.271
 20
34722.945
 40
500.00236
 50
321.01316
 51
350.30725
  0
ARC
  8
0-0
  6
CONTINUOUS
 62
    7
 10
23945.268
 20
34307.267
 40
150.00084
 50
269.99984
 51
359.99977
  0
ARC
  8
0-0
  6
CONTINUOUS
 62
    7
 10
24105.283
 20
34462.757
 40
10.000056
 50
0
 51
89.999923
  0
ARC
  8
0-0
  6
CONTINUOUS
 62
    7
 10
24105.283
 20
34462.757
 40
10.000054
 50
334.79129
 51
89.999923
  0
ARC
  8
0-0
  6
CONTINUOUS
 62
    7
 10
24118.487
 20
34372.47
 40
101.17459
 50
97.502426
 51
185.49705
  0
ARC
  8
0-0
  6
CONTINUOUS
 62
    7
 10
24295.275
 20
34373.345
 40
200.00111
 50
154.79104
 51
179.99967
  0
ARC
  8
0-0
  6
CONTINUOUS
 62
    7
 10
23790.282
 20
34668.192
 40
100.00052
 50
296.90751
 51
342.89102
  0
CIRCLE
  8
0-0
  6
CONTINUOUS
 62
    7
 10
23945.289
 20
35402.773
 40
354.50827
  0
CIRCLE
  8
0-0
  6
CONTINUOUS
 62
    7
 10
23945.289
 20
34362.748
 40
72.50038
  0
ENDSEC
  0
EOF
