  0
SECTION
  2
HEADER
  9
$ACADVER
  1
AC1009
  9
$INSBASE
 10
0
 20
0
 30
0
  9
$EXTMIN
 10
0
 20
0
  9
$EXTMAX
 10
84000
 20
59400
  9
$LIMMIN
 10
0
 20
0
  9
$LIMMAX
 10
84000
 20
59400
  9
$LTSCALE
 40
200
  0
ENDSEC
  0
SECTION
  2
TABLES
  0
TABLE
  2
LTYPE
 70
     9
  0
LTYPE
  2
CONTINUOUS
 70
    64
  3
実線
 72
    65
 73
     0
 40
0.0
  0
LTYPE
  2
DASHED1
 70
    64
  3
--  --  --  --  --  --  --  --  
 72
    65
 73
     2
 40
2.5
 49
1.25
 49
-1.25
  0
LTYPE
  2
DASHED2
 70
    64
  3
----    ----    ----    ----    
 72
    65
 73
     2
 40
5.0
 49
2.5
 49
-2.5
  0
LTYPE
  2
DASHED3
 70
    64
  3
------  ------  ------  ------  
 72
    65
 73
     2
 40
5.0
 49
3.75
 49
-1.25
  0
LTYPE
  2
CENTER1
 70
    64
  3
----- - ----- - ----- - ----- - 
 72
    65
 73
     4
 40
10.0
 49
6.25
 49
-1.25
 49
1.25
 49
-1.25
  0
LTYPE
  2
CENTER2
 70
    64
  3
----------  --  ----------  --  
 72
    65
 73
     4
 40
20.0
 49
12.5
 49
-2.5
 49
2.5
 49
-2.5
  0
LTYPE
  2
PHANTOM1
 70
    64
  3
--- - - --- - - --- - - --- - - 
 72
    65
 73
     6
 40
10.0
 49
3.25
 49
-1.25
 49
1.25
 49
-1.25
 49
1.25
 49
-1.25
  0
LTYPE
  2
PHANTOM2
 70
    64
  3
--------  -  -  --------  -  -  
 72
    65
 73
     6
 40
20.0
 49
10.0
 49
-2.5
 49
1.25
 49
-2.5
 49
1.25
 49
-2.5
  0
LTYPE
  2
DOT
 70
    64
  3
-   -   -   -   -   -   -   -   
 72
    65
 73
     2
 40
2.5
 49
0.625
 49
-1.875
  0
LTYPE
  2
DUMMY
 70
    64
  3
ダミー
 72
    65
 73
     0
 40
0.0
  0
LTYPE
  2
RAND1
 70
    64
  3
ランダム線1
 72
    65
 73
     4
 40
10.0
 49
1.0
 49
-2.0
 49
3.0
 49
-4.0
  0
LTYPE
  2
RAND2
 70
    64
  3
ランダム線2
 72
    65
 73
     4
 40
14.0
 49
2.0
 49
-3.0
 49
4.0
 49
-5.0
  0
LTYPE
  2
RAND3
 70
    64
  3
ランダム線3
 72
    65
 73
     4
 40
18.0
 49
3.0
 49
-4.0
 49
5.0
 49
-6.0
  0
LTYPE
  2
RAND4
 70
    64
  3
ランダム線4
 72
    65
 73
     4
 40
22.0
 49
4.0
 49
-5.0
 49
6.0
 49
-7.0
  0
LTYPE
  2
RAND5
 70
    64
  3
ランダム線5
 72
    65
 73
     4
 40
26.0
 49
5.0
 49
-6.0
 49
7.0
 49
-8.0
  0
LTYPE
  2
LONG1
 70
    64
  3
----------  --  ----------  --  
 72
    65
 73
     4
 40
40.0
 49
32.5
 49
-2.5
 49
2.5
 49
-2.5
  0
LTYPE
  2
LONG2
 70
    64
  3
--------  -  -  --------  -  -  
 72
    65
 73
     6
 40
40.0
 49
30.0
 49
-2.5
 49
1.25
 49
-2.5
 49
1.25
 49
-2.5
  0
LTYPE
  2
LONG3
 70
    64
  3
+++++++++++++++..+++++++++++++++
 72
    65
 73
     2
 40
40.0
 49
37.5
 49
-2.5
  0
LTYPE
  2
LONG4
 70
    64
  3
+++++++++++++++..+++++++++++++++
 72
    65
 73
     2
 40
80.0
 49
75.0
 49
-5.0
  0
LTYPE
  2
LONG5
 70
    64
  3
----------  --  ----------  --  
 72
    65
 73
     4
 40
60.0
 49
37.5
 49
-7.5
 49
7.5
 49
-7.5
  0
LTYPE
  2
dashed
 70
   64
  3
-------   -------------   ------
 72
   65
 73
    2
 40
7.5
 49
6
 49
-1.5
  0
LTYPE
  2
dashed_spaced
 70
   64
  3
----        --------        ----
 72
   65
 73
    2
 40
12
 49
6
 49
-6
  0
LTYPE
  2
long_dashed_dotted
 70
   64
  3
------------- --- --------------
 72
   65
 73
    4
 40
15.25
 49
12
 49
-1.5
 49
0.25
 49
-1.5
  0
LTYPE
  2
long_dashed_double-dotted
 70
   64
  3
----------- --- --- ------------
 72
   65
 73
    6
 40
17
 49
12
 49
-1.5
 49
0.25
 49
-1.5
 49
0.25
 49
-1.5
  0
LTYPE
  2
long_dashed_triplicate-dotted
 70
   64
  3
--------- --- --- --- ----------
 72
   65
 73
    8
 40
18.75
 49
12
 49
-1.5
 49
0.25
 49
-1.5
 49
0.25
 49
-1.5
 49
0.25
 49
-1.5
  0
LTYPE
  2
dotted
 70
   64
  3
   -       -       -       -    
 72
   65
 73
    2
 40
1.75
 49
0.25
 49
-1.5
  0
LTYPE
  2
chain
 70
   64
  3
-------------- -- --------------
 72
   65
 73
    4
 40
18.5
 49
12
 49
-1.5
 49
3.5
 49
-1.5
  0
LTYPE
  2
chain_double_dash
 70
   64
  3
------------ -- -- -------------
 72
   65
 73
    6
 40
23.5
 49
12
 49
-1.5
 49
3.5
 49
-1.5
 49
3.5
 49
-1.5
  0
LTYPE
  2
dashed_dotted
 70
   64
  3
-----------     -     ----------
 72
   65
 73
    4
 40
9.25
 49
6
 49
-1.5
 49
0.25
 49
-1.5
  0
LTYPE
  2
double-dashed_dotted
 70
   64
  3
------   -----------   -   -----
 72
   65
 73
    6
 40
16.75
 49
6
 49
-1.5
 49
6
 49
-1.5
 49
0.25
 49
-1.5
  0
LTYPE
  2
dashed_double-dotted
 70
   64
  3
---------    -    -    ---------
 72
   65
 73
    6
 40
11
 49
6
 49
-1.5
 49
0.25
 49
-1.5
 49
0.25
 49
-1.5
  0
LTYPE
  2
double-dashed_double-dotted
 70
   64
  3
-----   ---------   -   -   ----
 72
   65
 73
    8
 40
18.5
 49
6
 49
-1.5
 49
6
 49
-1.5
 49
0.25
 49
-1.5
 49
0.25
 49
-1.5
  0
LTYPE
  2
dashed_triplicate-dotted
 70
   64
  3
-------    -    -    -    ------
 72
   65
 73
    8
 40
12.75
 49
6
 49
-1.5
 49
0.25
 49
-1.5
 49
0.25
 49
-1.5
 49
0.25
 49
-1.5
  0
LTYPE
  2
double-dashed_triplicate-dotted
 70
   64
  3
-----  ---------  -  -  -  -----
 72
   65
 73
   10
 40
20.25
 49
6
 49
-1.5
 49
6
 49
-1.5
 49
0.25
 49
-1.5
 49
0.25
 49
-1.5
 49
0.25
 49
-1.5
  0
LTYPE
  2
undefined
 70
   64
  3
--------------------------------
 72
   65
 73
    0
 40
0
  0
LTYPE
  2
_
 70
   64
  3
                                
 72
   65
 73
    0
 40
0
  0
LTYPE
  2
__18
 70
   64
  3
                                
 72
   65
 73
    0
 40
0
  0
LTYPE
  2
__19
 70
   64
  3
                                
 72
   65
 73
    0
 40
0
  0
LTYPE
  2
__20
 70
   64
  3
                                
 72
   65
 73
    0
 40
0
  0
LTYPE
  2
__21
 70
   64
  3
                                
 72
   65
 73
    0
 40
0
  0
LTYPE
  2
__22
 70
   64
  3
                                
 72
   65
 73
    0
 40
0
  0
LTYPE
  2
__23
 70
   64
  3
                                
 72
   65
 73
    0
 40
0
  0
LTYPE
  2
__24
 70
   64
  3
                                
 72
   65
 73
    0
 40
0
  0
LTYPE
  2
__25
 70
   64
  3
                                
 72
   65
 73
    0
 40
0
  0
LTYPE
  2
__26
 70
   64
  3
                                
 72
   65
 73
    0
 40
0
  0
LTYPE
  2
__27
 70
   64
  3
                                
 72
   65
 73
    0
 40
0
  0
LTYPE
  2
__28
 70
   64
  3
                                
 72
   65
 73
    0
 40
0
  0
LTYPE
  2
__29
 70
   64
  3
                                
 72
   65
 73
    0
 40
0
  0
LTYPE
  2
__30
 70
   64
  3
                                
 72
   65
 73
    0
 40
0
  0
LTYPE
  2
__31
 70
   64
  3
                                
 72
   65
 73
    0
 40
0
  0
LTYPE
  2
__32
 70
   64
  3
                                
 72
   65
 73
    0
 40
0
  0
ENDTAB
  0
TABLE
  2
STYLE
  5
3
100
AcDbSymbolTable
 70
     1
  0
STYLE
  5
10
100
AcDbSymbolTableRecord
100
AcDbTextStyleTableRecord
  2
STANDARD
 70
     0
 40
0.0
 41
1.0
 50
0.0
 71
     0
 42
0.2
  3
txt
  4
bigfont.shx
  0
STYLE
  5
26
100
AcDbSymbolTableRecord
100
AcDbTextStyleTableRecord
  2
TATEGAKI
 70
    68
 40
0.0
 41
1.0
 50
0.0
 71
     0
 42
1.0
  3
txt
  4
bigfont.shx
  0
ENDTAB
  0
TABLE
  2
LAYER
 70
    2
  0
LAYER
  2
_0-0_
 70
   64
 62
    7
  6
CONTINUOUS
  0
LAYER
  2
ADD_LINE
 70
   64
 62
    7
  6
CONTINUOUS
  0
ENDTAB
  0
ENDSEC
  0
SECTION
  2
BLOCKS
  0
ENDSEC
  0
SECTION
  2
ENTITIES
  0
LINE
  8
_0-0_
  6
CONTINUOUS
 62
    7
 10
55974.532409517509
 20
31147.82532199681
 11
8974.523620455011
 21
31147.82532199681
  0
LINE
  8
_0-0_
  6
CONTINUOUS
 62
    7
 10
21124.527526705013
 20
32147.822270238998
 11
45074.526550142516
 21
32147.822270238998
  0
LINE
  8
_0-0_
  6
CONTINUOUS
 62
    7
 10
16374.523620455011
 20
29147.822514379623
 11
52974.527526705016
 21
29147.822514379623
  0
LINE
  8
_0-0_
  6
CONTINUOUS
 62
    7
 10
16186.511901705013
 20
31063.609135473373
 11
16174.738464205006
 21
31222.645024145248
  0
LINE
  8
_0-0_
  6
CONTINUOUS
 62
    7
 10
16192.390807955007
 20
31240.312016332748
 11
16207.125182955007
 21
31045.945683324935
  0
LINE
  8
_0-0_
  6
CONTINUOUS
 62
    7
 10
16333.754089205013
 20
30907.527836645248
 11
16333.754089205013
 21
31404.750737035873
  0
LINE
  8
_0-0_
  6
CONTINUOUS
 62
    7
 10
16919.816589205013
 20
31405.230717504623
 11
16919.816589205013
 21
30907.527836645248
  0
LINE
  8
_0-0_
  6
CONTINUOUS
 62
    7
 10
16961.039245455013
 20
31537.757084692123
 11
16961.039245455013
 21
30872.186039770248
  0
LINE
  8
_0-0_
  6
CONTINUOUS
 62
    7
 10
16295.476745455016
 20
30872.186039770248
 11
16295.476745455016
 21
31449.408696020248
  0
LINE
  8
_0-0_
  6
CONTINUOUS
 62
    7
 10
17005.222839205013
 20
30828.01428684056
 11
17005.222839205013
 21
31502.416508520248
  0
LINE
  8
_0-0_
  6
CONTINUOUS
 62
    7
 10
16251.308776705013
 20
31405.230717504623
 11
16251.308776705013
 21
30828.01428684056
  0
LINE
  8
_0-0_
  6
CONTINUOUS
 62
    7
 10
16893.308776705013
 20
30934.031132543685
 11
16893.308776705013
 21
31378.731205785873
  0
LINE
  8
_0-0_
  6
CONTINUOUS
 62
    7
 10
16360.261901705007
 20
31378.731205785873
 11
16360.261901705007
 21
30934.031132543685
  0
LINE
  8
_0-0_
  6
CONTINUOUS
 62
    7
 10
15305.957214205011
 20
31178.467045629623
 11
15317.742370455016
 21
31019.437504613994
  0
LINE
  8
_0-0_
  6
CONTINUOUS
 62
    7
 10
15303.007995455016
 20
31001.769047582748
 11
15285.336120455009
 21
31193.192143285869
  0
LINE
  8
_0-0_
  6
CONTINUOUS
 62
    7
 10
12210.757995455015
 20
31293.326176488994
 11
12198.984557955009
 21
31081.282597387435
  0
LINE
  8
_0-0_
  6
CONTINUOUS
 62
    7
 10
13318.082214205015
 20
31022.380741918685
 11
13318.082214205015
 21
31202.028324926498
  0
LINE
  8
_0-0_
  6
CONTINUOUS
 62
    7
 10
13318.082214205015
 20
31202.028324926498
 11
14207.472839205013
 21
31202.028324926498
  0
LINE
  8
_0-0_
  6
CONTINUOUS
 62
    7
 10
14207.472839205013
 20
31202.028324926498
 11
14207.472839205013
 21
31022.380741918685
  0
LINE
  8
_0-0_
  6
CONTINUOUS
 62
    7
 10
14207.472839205013
 20
31022.380741918685
 11
13318.082214205015
 21
31022.380741918685
  0
LINE
  8
_0-0_
  6
CONTINUOUS
 62
    7
 10
13300.410339205007
 20
31004.712284887431
 11
13300.410339205007
 21
31219.696781957748
  0
LINE
  8
_0-0_
  6
CONTINUOUS
 62
    7
 10
13300.410339205007
 20
31219.696781957748
 11
14225.136901705013
 21
31219.696781957748
  0
LINE
  8
_0-0_
  6
CONTINUOUS
 62
    7
 10
14225.136901705013
 20
31219.696781957748
 11
14225.136901705013
 21
31004.712284887431
  0
LINE
  8
_0-0_
  6
CONTINUOUS
 62
    7
 10
14225.136901705013
 20
31004.712284887431
 11
13300.410339205007
 21
31004.712284887431
  0
LINE
  8
_0-0_
  6
CONTINUOUS
 62
    7
 10
10564.507995455006
 20
31022.380741918685
 11
10564.507995455006
 21
31520.089848363994
  0
LINE
  8
_0-0_
  6
CONTINUOUS
 62
    7
 10
10564.507995455006
 20
31520.089848363994
 11
11150.558776705009
 21
31520.089848363994
  0
LINE
  8
_0-0_
  6
CONTINUOUS
 62
    7
 10
11150.558776705009
 20
31520.089848363994
 11
11150.558776705009
 21
31022.380741918685
  0
LINE
  8
_0-0_
  6
CONTINUOUS
 62
    7
 10
11150.558776705009
 20
31022.380741918685
 11
10564.507995455006
 21
31022.380741918685
  0
LINE
  8
_0-0_
  6
CONTINUOUS
 62
    7
 10
11256.582214205013
 20
31491.230961645248
 11
11256.582214205013
 21
30916.363896215556
  0
LINE
  8
_0-0_
  6
CONTINUOUS
 62
    7
 10
8653.1994017050129
 20
31078.338017309314
 11
8653.1994017050129
 21
31290.377934301494
  0
LINE
  8
_0-0_
  6
CONTINUOUS
 62
    7
 10
11212.402526705011
 20
30960.540654028056
 11
11212.402526705011
 21
31537.757084692123
  0
LINE
  8
_0-0_
  6
CONTINUOUS
 62
    7
 10
10502.672057955009
 20
30960.540654028056
 11
10502.672057955009
 21
31584.879399145244
  0
LINE
  8
_0-0_
  6
CONTINUOUS
 62
    7
 10
10458.484557955013
 20
31537.757084692123
 11
10458.484557955013
 21
30916.363896215556
  0
LINE
  8
_0-0_
  6
CONTINUOUS
 62
    7
 10
11256.582214205013
 20
31493.580326879623
 11
11256.582214205013
 21
30916.363896215556
  0
LINE
  8
_0-0_
  6
CONTINUOUS
 62
    7
 10
10591.011901705007
 20
31051.833500707751
 11
10591.011901705007
 21
31493.580326879623
  0
LINE
  8
_0-0_
  6
CONTINUOUS
 62
    7
 10
10591.011901705007
 20
31493.580326879623
 11
11124.062682955013
 21
31493.580326879623
  0
LINE
  8
_0-0_
  6
CONTINUOUS
 62
    7
 10
11124.062682955013
 20
31493.580326879623
 11
11124.062682955013
 21
31051.833500707751
  0
LINE
  8
_0-0_
  6
CONTINUOUS
 62
    7
 10
11124.062682955013
 20
31051.833500707751
 11
10591.011901705007
 21
31051.833500707751
  0
LINE
  8
_0-0_
  6
CONTINUOUS
 62
    7
 10
12198.984557955009
 20
31081.282597387435
 11
11294.871276705009
 21
31134.290409887431
  0
LINE
  8
_0-0_
  6
CONTINUOUS
 62
    7
 10
7746.9494017050129
 20
30162.443302953841
 11
7746.1408079550092
 21
31096.010136449935
  0
LINE
  8
_0-0_
  6
CONTINUOUS
 62
    7
 10
18951.859557955013
 20
30966.428471410869
 11
18951.859557955013
 21
31213.808842504626
  0
LINE
  8
_0-0_
  6
CONTINUOUS
 62
    7
 10
18987.203307955009
 20
31199.083744848373
 11
18987.203307955009
 21
30969.372929418681
  0
LINE
  8
_0-0_
  6
CONTINUOUS
 62
    7
 10
16919.816589205013
 20
30907.527836645248
 11
16333.754089205013
 21
30907.527836645248
  0
LINE
  8
_0-0_
  6
CONTINUOUS
 62
    7
 10
16295.476745455016
 20
30872.186039770248
 11
16961.039245455013
 21
30872.186039770248
  0
LINE
  8
_0-0_
  6
CONTINUOUS
 62
    7
 10
16251.308776705013
 20
30828.01428684056
 11
17005.222839205013
 21
30828.01428684056
  0
LINE
  8
_0-0_
  6
CONTINUOUS
 62
    7
 10
16360.261901705007
 20
30934.031132543685
 11
16893.308776705013
 21
30934.031132543685
  0
LINE
  8
_0-0_
  6
CONTINUOUS
 62
    7
 10
7746.7697142050156
 20
30374.483158910873
 11
19516.328307955009
 21
30374.483158910873
  0
LINE
  8
_0-0_
  6
CONTINUOUS
 62
    7
 10
13382.867370455006
 20
28910.818470800517
 11
17230.574401705009
 21
29105.11935123265
  0
LINE
  8
_0-0_
  6
CONTINUOUS
 62
    7
 10
17230.574401705009
 20
29149.292306864856
 11
13382.867370455006
 21
28954.995137060287
  0
LINE
  8
_0-0_
  6
CONTINUOUS
 62
    7
 10
18825.226745455009
 20
29140.937501752971
 11
13251.300964205006
 21
28861.081822240947
  0
LINE
  8
_0-0_
  6
CONTINUOUS
 62
    7
 10
9429.4962767050147
 20
29155.731928194167
 11
9548.351745455011
 21
29124.428316915633
  0
LINE
  8
_0-0_
  6
CONTINUOUS
 62
    7
 10
9530.7579954550074
 20
29335.566227758529
 11
9418.9298704550092
 21
29278.525166357162
  0
LINE
  8
_0-0_
  6
CONTINUOUS
 62
    7
 10
9080.2228392050092
 20
28339.488591039775
 11
9789.965026705011
 21
28339.488591039775
  0
LINE
  8
_0-0_
  6
CONTINUOUS
 62
    7
 10
9789.965026705011
 20
28206.962345922591
 11
8974.2072142050129
 21
28206.962345922591
  0
LINE
  8
_0-0_
  6
CONTINUOUS
 62
    7
 10
9283.4376829550129
 20
30067.597111547591
 11
9416.3165892050074
 21
30037.117497289779
  0
LINE
  8
_0-0_
  6
CONTINUOUS
 62
    7
 10
9416.3165892050074
 20
30037.117497289779
 11
9549.1134642050165
 21
30006.138005102282
  0
LINE
  8
_0-0_
  6
CONTINUOUS
 62
    7
 10
9549.1134642050165
 20
30006.138005102282
 11
9680.6525267050129
 21
29970.267887914782
  0
LINE
  8
_0-0_
  6
CONTINUOUS
 62
    7
 10
9680.6525267050129
 20
29970.267887914782
 11
9836.0978392050129
 21
29927.871586645244
  0
LINE
  8
_0-0_
  6
CONTINUOUS
 62
    7
 10
9836.0978392050129
 20
29927.871586645244
 11
9994.5040892050092
 21
29895.47424777806
  0
LINE
  8
_0-0_
  6
CONTINUOUS
 62
    7
 10
9994.5040892050092
 20
29895.47424777806
 11
10146.312682955011
 21
29841.438359106185
  0
LINE
  8
_0-0_
  6
CONTINUOUS
 62
    7
 10
10146.312682955011
 20
29841.438359106185
 11
10268.500182955006
 21
29797.947087133532
  0
LINE
  8
_0-0_
  6
CONTINUOUS
 62
    7
 10
10268.500182955006
 20
29797.947087133532
 11
10385.336120455009
 21
29740.98401340306
  0
LINE
  8
_0-0_
  6
CONTINUOUS
 62
    7
 10
10385.336120455009
 20
29740.98401340306
 11
10502.672057955009
 21
29685.687382543681
  0
LINE
  8
_0-0_
  6
CONTINUOUS
 62
    7
 10
10502.672057955009
 20
29685.687382543681
 11
10620.476745455016
 21
29630.145817602279
  0
LINE
  8
_0-0_
  6
CONTINUOUS
 62
    7
 10
10620.476745455016
 20
29630.145817602279
 11
10738.218932955009
 21
29574.455754125716
  0
LINE
  8
_0-0_
  6
CONTINUOUS
 62
    7
 10
10738.218932955009
 20
29574.455754125716
 11
10856.070495455015
 21
29518.927800024154
  0
LINE
  8
_0-0_
  6
CONTINUOUS
 62
    7
 10
10856.070495455015
 20
29518.927800024154
 11
10983.586120455016
 21
29458.840763891341
  0
LINE
  8
_0-0_
  6
CONTINUOUS
 62
    7
 10
10983.586120455016
 20
29458.840763891341
 11
11111.226745455007
 21
29398.977635229232
  0
LINE
  8
_0-0_
  6
CONTINUOUS
 62
    7
 10
11111.226745455007
 20
29398.977635229232
 11
11238.914245455009
 21
29339.228337133529
  0
LINE
  8
_0-0_
  6
CONTINUOUS
 62
    7
 10
11238.914245455009
 20
29339.228337133529
 11
11402.234557955013
 21
29262.802845800517
  0
LINE
  8
_0-0_
  6
CONTINUOUS
 62
    7
 10
11402.234557955013
 20
29262.802845800517
 11
11573.664245455006
 21
29205.358456457259
  0
LINE
  8
_0-0_
  6
CONTINUOUS
 62
    7
 10
11573.664245455006
 20
29205.358456457259
 11
11745.449401705013
 21
29150.543115223052
  0
LINE
  8
_0-0_
  6
CONTINUOUS
 62
    7
 10
11745.449401705013
 20
29150.543115223052
 11
12033.957214205009
 21
29058.47571262181
  0
LINE
  8
_0-0_
  6
CONTINUOUS
 62
    7
 10
12033.957214205009
 20
29058.47571262181
 11
12334.957214205007
 21
29014.504414404037
  0
LINE
  8
_0-0_
  6
CONTINUOUS
 62
    7
 10
12334.957214205007
 20
29014.504414404037
 11
12631.890807955006
 21
28954.995137060287
  0
LINE
  8
_0-0_
  6
CONTINUOUS
 62
    7
 10
12631.890807955006
 20
28954.995137060287
 11
12878.308776705013
 21
28905.603688085677
  0
LINE
  8
_0-0_
  6
CONTINUOUS
 62
    7
 10
12878.308776705013
 20
28905.603688085677
 11
13131.609557955016
 21
28905.682865942123
  0
LINE
  8
_0-0_
  6
CONTINUOUS
 62
    7
 10
13131.609557955016
 20
28905.682865942123
 11
13382.867370455006
 21
28910.818470800517
  0
LINE
  8
_0-0_
  6
CONTINUOUS
 62
    7
 10
13382.867370455006
 20
28954.995137060287
 11
13132.582214205013
 21
28949.574971044662
  0
LINE
  8
_0-0_
  6
CONTINUOUS
 62
    7
 10
13132.582214205013
 20
28949.574971044662
 11
12880.183776705007
 21
28949.343617284892
  0
LINE
  8
_0-0_
  6
CONTINUOUS
 62
    7
 10
12880.183776705007
 20
28949.343617284892
 11
12634.840026705013
 21
28999.171803320052
  0
LINE
  8
_0-0_
  6
CONTINUOUS
 62
    7
 10
12634.840026705013
 20
28999.171803320052
 11
12336.847839205006
 21
29059.683216894267
  0
LINE
  8
_0-0_
  6
CONTINUOUS
 62
    7
 10
12336.847839205006
 20
29059.683216894267
 11
12034.507995455009
 21
29103.859883154037
  0
LINE
  8
_0-0_
  6
CONTINUOUS
 62
    7
 10
12034.507995455009
 20
29103.859883154037
 11
11745.449401705013
 21
29198.250748479961
  0
LINE
  8
_0-0_
  6
CONTINUOUS
 62
    7
 10
11745.449401705013
 20
29198.250748479961
 11
11573.043151705007
 21
29254.544545019267
  0
LINE
  8
_0-0_
  6
CONTINUOUS
 62
    7
 10
11573.043151705007
 20
29254.544545019267
 11
11401.445495455016
 21
29314.381672704814
  0
LINE
  8
_0-0_
  6
CONTINUOUS
 62
    7
 10
11401.445495455016
 20
29314.381672704814
 11
11236.797057955016
 21
29390.434773290752
  0
LINE
  8
_0-0_
  6
CONTINUOUS
 62
    7
 10
11236.797057955016
 20
29390.434773290752
 11
11109.550964205016
 21
29449.212864721419
  0
LINE
  8
_0-0_
  6
CONTINUOUS
 62
    7
 10
11109.550964205016
 20
29449.212864721419
 11
10983.550964205006
 21
29510.686802709701
  0
LINE
  8
_0-0_
  6
CONTINUOUS
 62
    7
 10
10983.550964205006
 20
29510.686802709701
 11
10856.070495455015
 21
29568.931675756572
  0
LINE
  8
_0-0_
  6
CONTINUOUS
 62
    7
 10
10856.070495455015
 20
29568.931675756572
 11
10738.332214205013
 21
29622.713963354232
  0
LINE
  8
_0-0_
  6
CONTINUOUS
 62
    7
 10
10738.332214205013
 20
29622.713963354232
 11
10620.496276705013
 21
29676.274784887435
  0
LINE
  8
_0-0_
  6
CONTINUOUS
 62
    7
 10
10620.496276705013
 20
29676.274784887435
 11
10502.672057955009
 21
29729.812077367904
  0
LINE
  8
_0-0_
  6
CONTINUOUS
 62
    7
 10
10502.672057955009
 20
29729.812077367904
 11
10384.410339205009
 21
29783.542424047591
  0
LINE
  8
_0-0_
  6
CONTINUOUS
 62
    7
 10
10384.410339205009
 20
29783.542424047591
 11
10268.203307955013
 21
29842.146061742904
  0
LINE
  8
_0-0_
  6
CONTINUOUS
 62
    7
 10
10268.203307955013
 20
29842.146061742904
 11
10146.515807955006
 21
29887.543827856181
  0
LINE
  8
_0-0_
  6
CONTINUOUS
 62
    7
 10
10146.515807955006
 20
29887.543827856181
 11
9995.5001829550165
 21
29943.88586887181
  0
LINE
  8
_0-0_
  6
CONTINUOUS
 62
    7
 10
9995.5001829550165
 20
29943.88586887181
 11
9836.1486204550147
 21
29973.181523168681
  0
LINE
  8
_0-0_
  6
CONTINUOUS
 62
    7
 10
9836.1486204550147
 20
29973.181523168681
 11
9680.6525267050129
 21
30015.586491430407
  0
LINE
  8
_0-0_
  6
CONTINUOUS
 62
    7
 10
9680.6525267050129
 20
30015.586491430407
 11
9548.7072142050129
 21
30051.57043918431
  0
LINE
  8
_0-0_
  6
CONTINUOUS
 62
    7
 10
9548.7072142050129
 20
30051.57043918431
 11
9416.0978392050092
 21
30085.051518285873
  0
LINE
  8
_0-0_
  6
CONTINUOUS
 62
    7
 10
9416.0978392050092
 20
30085.051518285873
 11
9283.4376829550129
 21
30118.266606176498
  0
LINE
  8
_0-0_
  6
CONTINUOUS
 62
    7
 10
8974.523620455011
 20
30147.823307836654
 11
12974.527526705015
 21
29897.823735082751
  0
LINE
  8
_0-0_
  6
CONTINUOUS
 62
    7
 10
9133.2462767050056
 20
29994.576420629626
 11
9133.2462767050056
 21
30084.097660863994
  0
LINE
  8
_0-0_
  6
CONTINUOUS
 62
    7
 10
9027.2189329550092
 20
29994.576420629626
 11
9027.2189329550092
 21
30100.567265356189
  0
LINE
  8
_0-0_
  6
CONTINUOUS
 62
    7
 10
9239.257995455011
 20
29956.291264379623
 11
8921.1954954550147
 21
29956.291264379623
  0
LINE
  8
_0-0_
  6
CONTINUOUS
 62
    7
 10
9239.257995455011
 20
29994.576420629626
 11
9239.257995455011
 21
29920.950688207744
  0
LINE
  8
_0-0_
  6
CONTINUOUS
 62
    7
 10
8921.1954954550147
 20
29994.576420629626
 11
9239.257995455011
 21
29994.576420629626
  0
LINE
  8
_0-0_
  6
CONTINUOUS
 62
    7
 10
8921.1954954550147
 20
29920.950688207744
 11
8921.1954954550147
 21
29994.576420629626
  0
LINE
  8
_0-0_
  6
CONTINUOUS
 62
    7
 10
8308.6329954550129
 20
29920.950688207744
 11
9283.4376829550129
 21
29920.950688207744
  0
LINE
  8
_0-0_
  6
CONTINUOUS
 62
    7
 10
8824.0119017050129
 20
30118.266606176498
 11
9281.7423704550147
 21
30067.689884985088
  0
LINE
  8
_0-0_
  6
CONTINUOUS
 62
    7
 10
9283.4376829550129
 20
30118.266606176498
 11
8824.0119017050129
 21
30162.443302953841
  0
LINE
  8
_0-0_
  6
CONTINUOUS
 62
    7
 10
9283.4376829550129
 20
28413.114323461657
 11
8502.9962767050165
 21
28413.114323461657
  0
LINE
  8
_0-0_
  6
CONTINUOUS
 62
    7
 10
9027.2189329550092
 20
28365.993107641338
 11
9027.2189329550092
 21
28413.114323461657
  0
LINE
  8
_0-0_
  6
CONTINUOUS
 62
    7
 10
9133.2462767050056
 20
28365.993107641338
 11
9133.2462767050056
 21
28413.114323461657
  0
LINE
  8
_0-0_
  6
CONTINUOUS
 62
    7
 10
9186.242370455011
 20
28365.993107641338
 11
9186.242370455011
 21
28339.488591039775
  0
LINE
  8
_0-0_
  6
CONTINUOUS
 62
    7
 10
8974.2072142050129
 20
28365.993107641338
 11
9186.242370455011
 21
28365.993107641338
  0
LINE
  8
_0-0_
  6
CONTINUOUS
 62
    7
 10
8974.2072142050129
 20
28206.962345922591
 11
8974.2072142050129
 21
28365.993107641338
  0
LINE
  8
_0-0_
  6
CONTINUOUS
 62
    7
 10
9283.4376829550129
 20
29920.950688207744
 11
9283.4376829550129
 21
28413.114323461657
  0
LINE
  8
_0-0_
  6
CONTINUOUS
 62
    7
 10
8502.9962767050165
 20
28413.114323461657
 11
8308.6329954550129
 21
29920.950688207744
  0
LINE
  8
_0-0_
  6
CONTINUOUS
 62
    7
 10
7746.9494017050129
 20
30118.266606176498
 11
8824.0119017050129
 21
30118.266606176498
  0
LINE
  8
_0-0_
  6
CONTINUOUS
 62
    7
 10
8824.0119017050129
 20
30162.443302953841
 11
7746.9494017050129
 21
30162.443302953841
  0
LINE
  8
_0-0_
  6
CONTINUOUS
 62
    7
 10
7746.1408079550092
 20
31078.338017309314
 11
8653.1994017050129
 21
31078.338017309314
  0
LINE
  8
_0-0_
  6
CONTINUOUS
 62
    7
 10
9781.1408079550129
 20
29302.500859106185
 11
9776.574401705011
 21
29335.566227758529
  0
LINE
  8
_0-0_
  6
CONTINUOUS
 62
    7
 10
9776.574401705011
 20
29335.566227758529
 11
9771.789245455011
 21
29368.689762914779
  0
LINE
  8
_0-0_
  6
CONTINUOUS
 62
    7
 10
9771.789245455011
 20
29368.689762914779
 11
9763.2033079550074
 21
29400.946019018294
  0
LINE
  8
_0-0_
  6
CONTINUOUS
 62
    7
 10
9763.2033079550074
 20
29400.946019018294
 11
9751.8712767050147
 21
29443.504429662822
  0
LINE
  8
_0-0_
  6
CONTINUOUS
 62
    7
 10
9751.8712767050147
 20
29443.504429662822
 11
9741.2501829550129
 21
29486.264500463607
  0
LINE
  8
_0-0_
  6
CONTINUOUS
 62
    7
 10
9741.2501829550129
 20
29486.264500463607
 11
9728.4454954550147
 21
29528.402256811263
  0
LINE
  8
_0-0_
  6
CONTINUOUS
 62
    7
 10
9728.4454954550147
 20
29528.402256811263
 11
9713.4064329550147
 21
29577.854344213607
  0
LINE
  8
_0-0_
  6
CONTINUOUS
 62
    7
 10
9713.4064329550147
 20
29577.854344213607
 11
9694.1759642050092
 21
29625.898503149154
  0
LINE
  8
_0-0_
  6
CONTINUOUS
 62
    7
 10
9694.1759642050092
 20
29625.898503149154
 11
9676.2970579550147
 21
29674.397953832748
  0
LINE
  8
_0-0_
  6
CONTINUOUS
 62
    7
 10
9676.2970579550147
 20
29674.397953832748
 11
9643.3283079550165
 21
29763.831364477279
  0
LINE
  8
_0-0_
  6
CONTINUOUS
 62
    7
 10
9643.3283079550165
 20
29763.831364477279
 11
9593.4454954550129
 21
29845.873722875716
  0
LINE
  8
_0-0_
  6
CONTINUOUS
 62
    7
 10
9593.4454954550129
 20
29845.873722875716
 11
9543.0509642050092
 21
29926.777897680404
  0
LINE
  8
_0-0_
  6
CONTINUOUS
 62
    7
 10
9548.351745455011
 20
29124.428316915633
 11
9580.3400267050165
 21
29121.05571254552
  0
LINE
  8
_0-0_
  6
CONTINUOUS
 62
    7
 10
9566.1525267050129
 20
29343.732991064197
 11
9501.3556517050129
 21
29623.510716283919
  0
LINE
  8
_0-0_
  6
CONTINUOUS
 62
    7
 10
9501.3556517050129
 20
29623.510716283919
 11
9468.9650267050074
 21
29909.17004855931
  0
LINE
  8
_0-0_
  6
CONTINUOUS
 62
    7
 10
9530.7579954550074
 20
29335.566227758529
 11
9566.1525267050129
 21
29343.732991064197
  0
LINE
  8
_0-0_
  6
CONTINUOUS
 62
    7
 10
9580.8751829550147
 20
29178.810639227031
 11
9689.8361204550165
 21
29164.09044536412
  0
LINE
  8
_0-0_
  6
CONTINUOUS
 62
    7
 10
9689.8361204550165
 20
29164.09044536412
 11
9798.8126829550092
 21
29143.47375949681
  0
LINE
  8
_0-0_
  6
CONTINUOUS
 62
    7
 10
9566.1525267050129
 20
29343.732991064197
 11
9675.1251829550147
 21
29326.06084140599
  0
LINE
  8
_0-0_
  6
CONTINUOUS
 62
    7
 10
9675.1251829550147
 20
29326.06084140599
 11
9781.1408079550129
 21
29302.500859106185
  0
LINE
  8
_0-0_
  6
CONTINUOUS
 62
    7
 10
9889.9298704550129
 20
29326.04846652806
 11
9815.6603392050092
 21
29317.583546484115
  0
LINE
  8
_0-0_
  6
CONTINUOUS
 62
    7
 10
9829.590026705011
 20
29190.460106695296
 11
9900.7345579550129
 21
29196.38752445042
  0
LINE
  8
_0-0_
  6
CONTINUOUS
 62
    7
 10
9811.1681517050092
 20
29411.610661352279
 11
9763.8009642050056
 21
29400.045338476302
  0
LINE
  8
_0-0_
  6
CONTINUOUS
 62
    7
 10
9884.2853392050074
 20
29393.802433813216
 11
9933.8634642050129
 21
29397.285145605209
  0
LINE
  8
_0-0_
  6
CONTINUOUS
 62
    7
 10
9906.3869017050129
 20
29128.561798895003
 11
9884.2853392050074
 21
29393.802433813216
  0
LINE
  8
_0-0_
  6
CONTINUOUS
 62
    7
 10
9955.7072142050056
 20
29135.136275137069
 11
9906.3869017050129
 21
29128.561798895003
  0
LINE
  8
_0-0_
  6
CONTINUOUS
 62
    7
 10
9931.6564329550147
 20
29423.767399633529
 11
9957.9728392050129
 21
29107.888203466537
  0
LINE
  8
_0-0_
  6
CONTINUOUS
 62
    7
 10
10152.523620455009
 20
29146.400972688796
 11
10231.730651705016
 21
29193.539494360091
  0
LINE
  8
_0-0_
  6
CONTINUOUS
 62
    7
 10
10061.109557955013
 20
29116.668604696395
 11
10152.523620455009
 21
29146.400972688796
  0
LINE
  8
_0-0_
  6
CONTINUOUS
 62
    7
 10
9957.5861204550165
 20
29107.853562200664
 11
10061.109557955013
 21
29116.668604696395
  0
LINE
  8
_0-0_
  6
CONTINUOUS
 62
    7
 10
10122.757995455015
 20
29420.303227270244
 11
10214.047057955009
 21
29390.850468481189
  0
LINE
  8
_0-0_
  6
CONTINUOUS
 62
    7
 10
10031.457214205011
 20
29432.082615697982
 11
10122.757995455015
 21
29420.303227270244
  0
LINE
  8
_0-0_
  6
CONTINUOUS
 62
    7
 10
10014.476745455011
 20
29430.666020238998
 11
10014.476745455011
 21
29694.186955297591
  0
LINE
  8
_0-0_
  6
CONTINUOUS
 62
    7
 10
9931.6564329550147
 20
29423.767399633529
 11
10031.457214205011
 21
29432.082615697982
  0
LINE
  8
_0-0_
  6
CONTINUOUS
 62
    7
 10
10502.672057955009
 20
30960.540654028056
 11
11212.402526705011
 21
30960.540654028056
  0
LINE
  8
_0-0_
  6
CONTINUOUS
 62
    7
 10
10458.484557955013
 20
30916.363896215556
 11
11256.582214205013
 21
30916.363896215556
  0
LINE
  8
_0-0_
  6
CONTINUOUS
 62
    7
 10
12618.949401705015
 20
28918.150120580794
 11
12546.711120455006
 21
28825.7066086179
  0
LINE
  8
_0-0_
  6
CONTINUOUS
 62
    7
 10
9837.1759642050165
 20
29099.502468908428
 11
9801.7540892050074
 21
29099.297093237044
  0
LINE
  8
_0-0_
  6
CONTINUOUS
 62
    7
 10
12546.711120455006
 20
28825.7066086179
 11
9789.965026705011
 21
28206.962345922591
  0
LINE
  8
_0-0_
  6
CONTINUOUS
 62
    7
 10
9798.8126829550092
 20
29143.47375949681
 11
9802.7189329550092
 21
29089.525692785384
  0
LINE
  8
_0-0_
  6
CONTINUOUS
 62
    7
 10
9802.7189329550092
 20
29089.525692785384
 11
9805.5704954550147
 21
29035.160694921615
  0
LINE
  8
_0-0_
  6
CONTINUOUS
 62
    7
 10
9805.5704954550147
 20
29035.160694921615
 11
9798.8126829550092
 21
28981.499653661849
  0
LINE
  8
_0-0_
  6
CONTINUOUS
 62
    7
 10
9798.8126829550092
 20
28981.499653661849
 11
9792.8439329550092
 21
28934.252262914775
  0
LINE
  8
_0-0_
  6
CONTINUOUS
 62
    7
 10
9792.8439329550092
 20
28934.252262914775
 11
9785.9884642050129
 21
28887.118687475329
  0
LINE
  8
_0-0_
  6
CONTINUOUS
 62
    7
 10
9785.9884642050129
 20
28887.118687475329
 11
9778.1915892050165
 21
28840.137303197982
  0
LINE
  8
_0-0_
  6
CONTINUOUS
 62
    7
 10
9778.1915892050165
 20
28840.137303197982
 11
9761.3322142050147
 21
28738.533543432357
  0
LINE
  8
_0-0_
  6
CONTINUOUS
 62
    7
 10
9761.3322142050147
 20
28738.533543432357
 11
9724.9533079550129
 21
28641.34290012181
  0
LINE
  8
_0-0_
  6
CONTINUOUS
 62
    7
 10
9724.9533079550129
 20
28641.34290012181
 11
9686.9025267050129
 21
28545.635685766341
  0
LINE
  8
_0-0_
  6
CONTINUOUS
 62
    7
 10
9580.8751829550147
 20
29178.810639227031
 11
9577.9259642050074
 21
28860.75397189915
  0
LINE
  8
_0-0_
  6
CONTINUOUS
 62
    7
 10
9577.9259642050074
 20
28860.75397189915
 11
9610.3283079550129
 21
28545.635685766341
  0
LINE
  8
_0-0_
  6
CONTINUOUS
 62
    7
 10
9811.1681517050092
 20
29411.610661352279
 11
9837.1759642050165
 21
29099.502468908428
  0
LINE
  8
_0-0_
  6
CONTINUOUS
 62
    7
 10
10013.785339205015
 20
28754.732212865951
 11
10013.785339205015
 21
29114.350094640857
  0
LINE
  8
_0-0_
  6
CONTINUOUS
 62
    7
 10
13251.300964205006
 20
28861.081822240947
 11
13039.332214205013
 21
28864.760044897201
  0
LINE
  8
_0-0_
  6
CONTINUOUS
 62
    7
 10
13039.332214205013
 20
28864.760044897201
 11
12826.093932955007
 21
28872.78326877415
  0
LINE
  8
_0-0_
  6
CONTINUOUS
 62
    7
 10
12826.093932955007
 20
28872.78326877415
 11
12619.023620455016
 21
28918.250325048568
  0
LINE
  8
_0-0_
  6
CONTINUOUS
 62
    7
 10
12619.023620455016
 20
28918.250325048568
 11
12326.500182955009
 21
28982.488179052474
  0
LINE
  8
_0-0_
  6
CONTINUOUS
 62
    7
 10
12326.500182955009
 20
28982.488179052474
 11
12035.218932955013
 21
29052.422093237044
  0
LINE
  8
_0-0_
  6
CONTINUOUS
 62
    7
 10
12035.218932955013
 20
29052.422093237044
 11
11745.449401705013
 21
29128.159708822368
  0
LINE
  8
_0-0_
  6
CONTINUOUS
 62
    7
 10
11745.449401705013
 20
29128.159708822368
 11
11568.265807955015
 21
29174.471781576278
  0
LINE
  8
_0-0_
  6
CONTINUOUS
 62
    7
 10
11568.265807955015
 20
29174.471781576278
 11
11402.109557955009
 21
29254.772190893294
  0
LINE
  8
_0-0_
  6
CONTINUOUS
 62
    7
 10
11402.109557955009
 20
29254.772190893294
 11
11238.914245455009
 21
29337.841450536849
  0
LINE
  8
_0-0_
  6
CONTINUOUS
 62
    7
 10
15317.742370455016
 20
31019.437504613994
 11
16186.511901705013
 21
31063.609135473373
  0
LINE
  8
_0-0_
  6
CONTINUOUS
 62
    7
 10
16207.125182955007
 20
31045.945683324935
 11
15303.007995455016
 21
31001.769047582748
  0
LINE
  8
_0-0_
  6
CONTINUOUS
 62
    7
 10
12974.527526705015
 20
29897.823735082751
 11
16374.523620455011
 21
29147.822514379623
  0
LINE
  8
_0-0_
  6
CONTINUOUS
 62
    7
 10
12979.547057955006
 20
31011.847294653056
 11
12315.203307955016
 21
31051.667729223373
  0
LINE
  8
_0-0_
  6
CONTINUOUS
 62
    7
 10
12303.582214205016
 20
30857.772709692119
 11
12967.925964205006
 21
30817.939823949935
  0
LINE
  8
_0-0_
  6
CONTINUOUS
 62
    7
 10
15181.961120455015
 20
30978.208988988998
 11
14516.433776705015
 21
30978.208988988998
  0
LINE
  8
_0-0_
  6
CONTINUOUS
 62
    7
 10
14516.433776705015
 20
30783.968754614001
 11
15181.961120455015
 21
30783.951420629619
  0
LINE
  8
_0-0_
  6
CONTINUOUS
 62
    7
 10
19326.859557955013
 20
29806.096562231185
 11
19253.234557955013
 21
29585.221867406966
  0
LINE
  8
_0-0_
  6
CONTINUOUS
 62
    7
 10
19696.945495455013
 20
30916.363896215556
 11
19346.496276705013
 21
29864.998356664779
  0
LINE
  8
_0-0_
  6
CONTINUOUS
 62
    7
 10
19696.824401705013
 20
31001.073735082748
 11
19696.945495455013
 21
30916.363896215556
  0
LINE
  8
_0-0_
  6
CONTINUOUS
 62
    7
 10
19346.496276705013
 20
29864.998356664779
 11
19186.605651705013
 21
29765.633976781966
  0
LINE
  8
_0-0_
  6
CONTINUOUS
 62
    7
 10
19186.605651705013
 20
29765.633976781966
 11
19025.086120455009
 21
29667.442387426498
  0
LINE
  8
_0-0_
  6
CONTINUOUS
 62
    7
 10
19025.086120455009
 20
29667.442387426498
 11
18851.734557955009
 21
29594.061650121806
  0
LINE
  8
_0-0_
  6
CONTINUOUS
 62
    7
 10
18851.734557955009
 20
29594.061650121806
 11
18706.988464205009
 21
29532.785649145244
  0
LINE
  8
_0-0_
  6
CONTINUOUS
 62
    7
 10
18706.988464205009
 20
29532.785649145244
 11
18563.711120455009
 21
29467.799321020248
  0
LINE
  8
_0-0_
  6
CONTINUOUS
 62
    7
 10
18563.711120455009
 20
29467.799321020248
 11
18415.875182955009
 21
29414.415409887435
  0
LINE
  8
_0-0_
  6
CONTINUOUS
 62
    7
 10
18415.875182955009
 20
29414.415409887435
 11
18267.183776705009
 21
29360.714787328841
  0
LINE
  8
_0-0_
  6
CONTINUOUS
 62
    7
 10
18267.183776705009
 20
29360.714787328841
 11
18114.050964205009
 21
29320.518177831771
  0
LINE
  8
_0-0_
  6
CONTINUOUS
 62
    7
 10
18114.050964205009
 20
29320.518177831771
 11
17962.347839205009
 21
29276.001286352279
  0
LINE
  8
_0-0_
  6
CONTINUOUS
 62
    7
 10
17962.347839205009
 20
29276.001286352279
 11
17724.457214205009
 21
29206.18985446751
  0
LINE
  8
_0-0_
  6
CONTINUOUS
 62
    7
 10
17724.457214205009
 20
29206.18985446751
 11
17477.023620455013
 21
29176.278092229961
  0
LINE
  8
_0-0_
  6
CONTINUOUS
 62
    7
 10
17477.023620455013
 20
29176.278092229961
 11
17230.574401705009
 21
29149.292306864856
  0
LINE
  8
_0-0_
  6
CONTINUOUS
 62
    7
 10
19326.859557955013
 20
29806.096562231185
 11
19173.691589205013
 21
29714.812260473373
  0
LINE
  8
_0-0_
  6
CONTINUOUS
 62
    7
 10
19173.691589205013
 20
29714.812260473373
 11
19019.222839205013
 21
29624.47696384251
  0
LINE
  8
_0-0_
  6
CONTINUOUS
 62
    7
 10
19019.222839205013
 20
29624.47696384251
 11
18854.679870455013
 21
29555.772831762435
  0
LINE
  8
_0-0_
  6
CONTINUOUS
 62
    7
 10
18854.679870455013
 20
29555.772831762435
 11
18710.828307955009
 21
29495.712986791732
  0
LINE
  8
_0-0_
  6
CONTINUOUS
 62
    7
 10
18710.828307955009
 20
29495.712986791732
 11
18568.293151705009
 21
29432.266941869857
  0
LINE
  8
_0-0_
  6
CONTINUOUS
 62
    7
 10
18568.293151705009
 20
29432.266941869857
 11
18421.769714205013
 21
29379.074818456767
  0
LINE
  8
_0-0_
  6
CONTINUOUS
 62
    7
 10
18421.769714205013
 20
29379.074818456767
 11
18272.000182955013
 21
29324.709812963607
  0
LINE
  8
_0-0_
  6
CONTINUOUS
 62
    7
 10
18272.000182955013
 20
29324.709812963607
 11
18117.933776705009
 21
29283.358906591537
  0
LINE
  8
_0-0_
  6
CONTINUOUS
 62
    7
 10
18117.933776705009
 20
29283.358906591537
 11
17965.285339205009
 21
29237.716160619857
  0
LINE
  8
_0-0_
  6
CONTINUOUS
 62
    7
 10
17965.285339205009
 20
29237.716160619857
 11
17726.527526705009
 21
29166.317402685287
  0
LINE
  8
_0-0_
  6
CONTINUOUS
 62
    7
 10
17726.527526705009
 20
29166.317402685287
 11
17478.066589205009
 21
29134.375397527816
  0
LINE
  8
_0-0_
  6
CONTINUOUS
 62
    7
 10
17478.066589205009
 20
29134.375397527816
 11
17230.574401705009
 21
29105.11935123265
  0
LINE
  8
_0-0_
  6
CONTINUOUS
 62
    7
 10
19829.472839205013
 20
31014.222660863998
 11
18951.859557955013
 21
30966.428471410869
  0
LINE
  8
_0-0_
  6
CONTINUOUS
 62
    7
 10
16419.172057955009
 20
32871.843754613998
 11
16908.031432955013
 21
32871.843754613998
  0
LINE
  8
_0-0_
  6
CONTINUOUS
 62
    7
 10
17635.957214205009
 20
33004.208988988998
 11
15771.265807955013
 21
33004.369877660873
  0
LINE
  8
_0-0_
  6
CONTINUOUS
 62
    7
 10
15771.265807955013
 20
32951.355961645248
 11
17809.207214205013
 21
32951.355961645248
  0
LINE
  8
_0-0_
  6
CONTINUOUS
 62
    7
 10
16151.168151705007
 20
33360.710697973373
 11
17075.894714205013
 21
33360.710697973373
  0
LINE
  8
_0-0_
  6
CONTINUOUS
 62
    7
 10
15709.425964205013
 20
33184.011235082748
 11
17661.957214205009
 21
33184.011235082748
  0
LINE
  8
_0-0_
  6
CONTINUOUS
 62
    7
 10
16333.754089205013
 20
31405.230717504623
 11
16919.816589205013
 21
31405.230717504623
  0
LINE
  8
_0-0_
  6
CONTINUOUS
 62
    7
 10
16908.031432955013
 20
31449.408696020248
 11
16419.172057955009
 21
31449.408696020248
  0
LINE
  8
_0-0_
  6
CONTINUOUS
 62
    7
 10
16893.308776705013
 20
31378.731205785873
 11
16360.261901705007
 21
31378.731205785873
  0
LINE
  8
_0-0_
  6
CONTINUOUS
 62
    7
 10
21974.531432955009
 20
35347.823002660873
 11
8974.523620455011
 21
35347.823002660873
  0
LINE
  8
_0-0_
  6
CONTINUOUS
 62
    7
 10
8974.523620455011
 20
35647.821537817123
 11
21974.531432955009
 21
35647.821537817123
  0
LINE
  8
_0-0_
  6
CONTINUOUS
 62
    7
 10
21974.531432955009
 20
35922.823490942115
 11
8974.523620455011
 21
35922.823490942115
  0
LINE
  8
_0-0_
  6
CONTINUOUS
 62
    7
 10
8974.523620455011
 20
35972.821049535873
 11
21974.531432955009
 21
35972.821049535873
  0
LINE
  8
_0-0_
  6
CONTINUOUS
 62
    7
 10
8974.523620455011
 20
35047.819584692123
 11
21974.531432955009
 21
35047.819584692123
  0
LINE
  8
_0-0_
  6
CONTINUOUS
 62
    7
 10
21974.531432955009
 20
34647.820561254623
 11
8974.523620455011
 21
34647.820561254623
  0
LINE
  8
_0-0_
  6
CONTINUOUS
 62
    7
 10
20624.525573580009
 20
32758.885014379623
 11
8974.523620455011
 21
32758.885014379623
  0
LINE
  8
_0-0_
  6
CONTINUOUS
 62
    7
 10
11424.523620455011
 20
35047.819584692123
 11
11424.523620455011
 21
43247.823490942115
  0
LINE
  8
_0-0_
  6
CONTINUOUS
 62
    7
 10
11574.535339205011
 20
43247.823490942115
 11
11574.535339205011
 21
35047.819584692123
  0
LINE
  8
_0-0_
  6
CONTINUOUS
 62
    7
 10
10458.484557955013
 20
31537.757084692123
 11
7746.1408079550092
 21
31717.405766332748
  0
LINE
  8
_0-0_
  6
CONTINUOUS
 62
    7
 10
7746.1408079550092
 20
31761.576176488994
 11
10502.672057955009
 21
31584.879399145244
  0
LINE
  8
_0-0_
  6
CONTINUOUS
 62
    7
 10
8974.523620455011
 20
33758.890385473373
 11
10324.523620455011
 21
33758.890385473373
  0
LINE
  8
_0-0_
  6
CONTINUOUS
 62
    7
 10
8635.5236204550129
 20
31272.709477270248
 11
8635.5236204550129
 21
31096.010136449935
  0
LINE
  8
_0-0_
  6
CONTINUOUS
 62
    7
 10
7746.1408079550092
 20
31717.405766332748
 11
7746.1408079550092
 21
31272.709477270248
  0
LINE
  8
_0-0_
  6
CONTINUOUS
 62
    7
 10
8635.5236204550129
 20
31096.010136449935
 11
7746.1408079550092
 21
31096.010136449935
  0
LINE
  8
_0-0_
  6
CONTINUOUS
 62
    7
 10
7746.1408079550092
 20
31272.709477270248
 11
8635.5236204550129
 21
31272.709477270248
  0
LINE
  8
_0-0_
  6
CONTINUOUS
 62
    7
 10
8653.1994017050129
 20
31290.377934301494
 11
7746.1408079550092
 21
31290.377934301494
  0
LINE
  8
_0-0_
  6
CONTINUOUS
 62
    7
 10
8974.523620455011
 20
35972.821049535873
 11
8974.523620455011
 21
35047.819584692123
  0
LINE
  8
_0-0_
  6
CONTINUOUS
 62
    7
 10
9124.5314329550074
 20
32758.885014379623
 11
9124.5314329550074
 21
33758.890385473373
  0
LINE
  8
_0-0_
  6
CONTINUOUS
 62
    7
 10
8974.523620455011
 20
32758.885014379623
 11
8974.523620455011
 21
33758.890385473373
  0
LINE
  8
_0-0_
  6
CONTINUOUS
 62
    7
 10
8974.523620455011
 20
34647.820561254623
 11
8974.523620455011
 21
35047.819584692123
  0
LINE
  8
_0-0_
  6
CONTINUOUS
 62
    7
 10
16286.640807955007
 20
35535.471440160873
 11
16286.640807955007
 21
37501.383061254623
  0
LINE
  8
_0-0_
  6
CONTINUOUS
 62
    7
 10
16383.824401705009
 20
37501.383061254623
 11
16383.824401705009
 21
35307.356694067123
  0
LINE
  8
_0-0_
  6
CONTINUOUS
 62
    7
 10
14999.863464205009
 20
37282.240483129623
 11
14357.672057955006
 21
31620.218754613994
  0
LINE
  8
_0-0_
  6
CONTINUOUS
 62
    7
 10
14463.687682955015
 20
31620.218754613994
 11
15111.390807955013
 21
37305.284428442123
  0
LINE
  8
_0-0_
  6
CONTINUOUS
 62
    7
 10
15632.707214205016
 20
36419.049076879623
 11
14883.578307955009
 21
35307.356694067123
  0
LINE
  8
_0-0_
  6
CONTINUOUS
 62
    7
 10
15596.652526705009
 20
36480.330326879623
 11
14899.937682955009
 21
35449.295658910873
  0
LINE
  8
_0-0_
  6
CONTINUOUS
 62
    7
 10
15047.781432955015
 20
37413.410405004623
 11
16286.640807955007
 21
35307.356694067123
  0
LINE
  8
_0-0_
  6
CONTINUOUS
 62
    7
 10
15128.297057955013
 20
37501.383061254623
 11
16330.816589205006
 21
35460.502201879623
  0
LINE
  8
_0-0_
  6
CONTINUOUS
 62
    7
 10
10173.453307955015
 20
35047.819584692123
 11
11424.523620455011
 21
40052.108647192123
  0
LINE
  8
_0-0_
  6
CONTINUOUS
 62
    7
 10
11424.523620455011
 20
40447.824467504623
 11
10074.519714205007
 21
35047.819584692123
  0
LINE
  8
_0-0_
  6
CONTINUOUS
 62
    7
 10
16358.039245455006
 20
36235.240971410873
 11
15057.074401705006
 21
38441.706303442123
  0
LINE
  8
_0-0_
  6
CONTINUOUS
 62
    7
 10
15033.152526705009
 20
38427.357670629623
 11
16335.398620455009
 21
36219.894780004623
  0
LINE
  8
_0-0_
  6
CONTINUOUS
 62
    7
 10
16224.797057955016
 20
35242.567143285873
 11
16298.418151705016
 21
34995.186772192123
  0
LINE
  8
_0-0_
  6
CONTINUOUS
 62
    7
 10
16363.211120455015
 20
34995.186772192123
 11
16298.418151705016
 21
34995.186772192123
  0
LINE
  8
_0-0_
  6
CONTINUOUS
 62
    7
 10
16286.640807955007
 20
35242.567143285873
 11
16363.211120455015
 21
34995.186772192123
  0
LINE
  8
_0-0_
  6
CONTINUOUS
 62
    7
 10
16872.699401705009
 20
35242.567143285873
 11
16383.824401705009
 21
35033.475346410873
  0
LINE
  8
_0-0_
  6
CONTINUOUS
 62
    7
 10
16383.824401705009
 20
35101.209721410873
 11
16713.660339205009
 21
35242.567143285873
  0
LINE
  8
_0-0_
  6
CONTINUOUS
 62
    7
 10
16872.699401705009
 20
35307.356694067123
 11
16872.699401705009
 21
35242.567143285873
  0
LINE
  8
_0-0_
  6
CONTINUOUS
 62
    7
 10
16330.816589205006
 20
35307.356694067123
 11
16330.816589205006
 21
35460.502201879623
  0
LINE
  8
_0-0_
  6
CONTINUOUS
 62
    7
 10
15500.328307955009
 20
31973.617436254619
 11
15500.328307955009
 21
32126.755375707744
  0
LINE
  8
_0-0_
  6
CONTINUOUS
 62
    7
 10
16286.640807955007
 20
33219.078373754623
 11
16339.652526705015
 21
33219.078373754623
  0
LINE
  8
_0-0_
  6
CONTINUOUS
 62
    7
 10
16286.640807955007
 20
33263.531010473373
 11
16286.640807955007
 21
33219.078373754623
  0
LINE
  8
_0-0_
  6
CONTINUOUS
 62
    7
 10
16339.652526705015
 20
33263.531010473373
 11
16286.640807955007
 21
33263.531010473373
  0
LINE
  8
_0-0_
  6
CONTINUOUS
 62
    7
 10
16339.652526705015
 20
33298.865483129623
 11
16339.652526705015
 21
33184.011235082748
  0
LINE
  8
_0-0_
  6
CONTINUOUS
 62
    7
 10
16233.632995455013
 20
33298.865483129623
 11
16339.652526705015
 21
33298.865483129623
  0
LINE
  8
_0-0_
  6
CONTINUOUS
 62
    7
 10
16233.632995455013
 20
33184.011235082748
 11
16233.632995455013
 21
33298.865483129623
  0
LINE
  8
_0-0_
  6
CONTINUOUS
 62
    7
 10
15709.242370455013
 20
31799.681889379623
 11
15709.425964205013
 21
33184.011235082748
  0
LINE
  8
_0-0_
  6
CONTINUOUS
 62
    7
 10
15771.265807955013
 20
33004.369877660873
 11
15771.265807955013
 21
32951.355961645248
  0
LINE
  8
_0-0_
  6
CONTINUOUS
 62
    7
 10
15815.441589205011
 20
32427.147221410873
 11
16242.461120455016
 21
32427.147221410873
  0
LINE
  8
_0-0_
  6
CONTINUOUS
 62
    7
 10
15815.441589205011
 20
32854.176518285873
 11
15815.441589205011
 21
32427.147221410873
  0
LINE
  8
_0-0_
  6
CONTINUOUS
 62
    7
 10
16242.461120455016
 20
32854.176518285873
 11
15815.441589205011
 21
32854.176518285873
  0
LINE
  8
_0-0_
  6
CONTINUOUS
 62
    7
 10
16242.461120455016
 20
32427.147221410873
 11
16242.461120455016
 21
32854.176518285873
  0
LINE
  8
_0-0_
  6
CONTINUOUS
 62
    7
 10
15797.769714205015
 20
32409.479985082748
 11
16260.144714205013
 21
32409.479985082748
  0
LINE
  8
_0-0_
  6
CONTINUOUS
 62
    7
 10
15797.769714205015
 20
32871.843754613998
 11
15797.769714205015
 21
32409.479985082748
  0
LINE
  8
_0-0_
  6
CONTINUOUS
 62
    7
 10
16260.144714205013
 20
32871.843754613998
 11
15797.769714205015
 21
32871.843754613998
  0
LINE
  8
_0-0_
  6
CONTINUOUS
 62
    7
 10
16260.144714205013
 20
32409.479985082748
 11
16260.144714205013
 21
32871.843754613998
  0
LINE
  8
_0-0_
  6
CONTINUOUS
 62
    7
 10
16151.168151705007
 20
33184.011235082748
 11
16151.168151705007
 21
33360.710697973373
  0
LINE
  8
_0-0_
  6
CONTINUOUS
 62
    7
 10
16837.351745455013
 20
32792.331303442123
 11
16489.855651705013
 21
32792.331303442123
  0
LINE
  8
_0-0_
  6
CONTINUOUS
 62
    7
 10
16837.351745455013
 20
32480.156254613998
 11
16837.351745455013
 21
32792.331303442123
  0
LINE
  8
_0-0_
  6
CONTINUOUS
 62
    7
 10
16489.855651705013
 20
32480.156254613998
 11
16837.351745455013
 21
32480.156254613998
  0
LINE
  8
_0-0_
  6
CONTINUOUS
 62
    7
 10
16489.855651705013
 20
32792.331303442123
 11
16489.855651705013
 21
32480.156254613998
  0
LINE
  8
_0-0_
  6
CONTINUOUS
 62
    7
 10
16419.172057955009
 20
32871.843754613998
 11
16419.172057955009
 21
31449.408696020248
  0
LINE
  8
_0-0_
  6
CONTINUOUS
 62
    7
 10
15600.449401705009
 20
32577.343266332748
 11
15600.449401705009
 21
31690.895024145248
  0
LINE
  8
_0-0_
  6
CONTINUOUS
 62
    7
 10
16286.640807955007
 20
33360.710697973373
 11
16286.640807955007
 21
35034.769291723373
  0
LINE
  8
_0-0_
  6
CONTINUOUS
 62
    7
 10
16383.824401705009
 20
35242.567143285873
 11
16383.824401705009
 21
33360.710697973373
  0
LINE
  8
_0-0_
  6
CONTINUOUS
 62
    7
 10
14313.488464205011
 20
32091.413578832748
 11
14313.488464205011
 21
31929.439457738998
  0
LINE
  8
_0-0_
  6
CONTINUOUS
 62
    7
 10
14393.007995455013
 20
32135.596440160873
 11
14393.007995455013
 21
31935.739262426494
  0
LINE
  8
_0-0_
  6
CONTINUOUS
 62
    7
 10
15055.629089205013
 20
32126.755375707744
 11
15055.629089205013
 21
31973.617436254619
  0
LINE
  8
_0-0_
  6
CONTINUOUS
 62
    7
 10
15102.750182955015
 20
32126.755375707744
 11
15102.750182955015
 21
32577.343266332748
  0
LINE
  8
_0-0_
  6
CONTINUOUS
 62
    7
 10
13586.082214205009
 20
31953.000737035869
 11
14313.488464205011
 21
31953.000737035869
  0
LINE
  8
_0-0_
  6
CONTINUOUS
 62
    7
 10
13586.082214205009
 20
31929.439457738998
 11
13586.082214205009
 21
32091.413578832748
  0
LINE
  8
_0-0_
  6
CONTINUOUS
 62
    7
 10
14313.488464205011
 20
31929.439457738998
 11
13586.082214205009
 21
31929.439457738998
  0
LINE
  8
_0-0_
  6
CONTINUOUS
 62
    7
 10
13586.082214205009
 20
32091.413578832748
 11
14313.488464205011
 21
32091.413578832748
  0
LINE
  8
_0-0_
  6
CONTINUOUS
 62
    7
 10
13503.617370455015
 20
32135.596440160873
 11
14393.007995455013
 21
32135.596440160873
  0
LINE
  8
_0-0_
  6
CONTINUOUS
 62
    7
 10
13503.617370455015
 20
31814.590336645244
 11
14381.222839205009
 21
31814.590336645244
  0
LINE
  8
_0-0_
  6
CONTINUOUS
 62
    7
 10
12846.882995455007
 20
32135.596440160873
 11
12846.882995455007
 21
31973.617436254619
  0
LINE
  8
_0-0_
  6
CONTINUOUS
 62
    7
 10
13291.574401705009
 20
32135.596440160873
 11
12846.882995455007
 21
32135.596440160873
  0
LINE
  8
_0-0_
  6
CONTINUOUS
 62
    7
 10
12846.882995455007
 20
31973.617436254619
 11
13291.574401705009
 21
31973.617436254619
  0
LINE
  8
_0-0_
  6
CONTINUOUS
 62
    7
 10
13291.574401705009
 20
31973.617436254619
 11
13291.574401705009
 21
32135.596440160873
  0
LINE
  8
_0-0_
  6
CONTINUOUS
 62
    7
 10
12313.836120455016
 20
31805.754155004623
 11
11950.886901705007
 21
31805.754155004623
  0
LINE
  8
_0-0_
  6
CONTINUOUS
 62
    7
 10
12313.836120455016
 20
31770.412358129623
 11
12313.836120455016
 21
31805.754155004623
  0
LINE
  8
_0-0_
  6
CONTINUOUS
 62
    7
 10
11979.632995455006
 20
31770.412358129623
 11
12313.836120455016
 21
31770.412358129623
  0
LINE
  8
_0-0_
  6
CONTINUOUS
 62
    7
 10
14304.652526705013
 20
32135.596440160873
 11
14304.652526705013
 21
32400.644047582744
  0
LINE
  8
_0-0_
  6
CONTINUOUS
 62
    7
 10
14278.144714205007
 20
32400.644047582744
 11
14278.144714205007
 21
32135.596440160873
  0
LINE
  8
_0-0_
  6
CONTINUOUS
 62
    7
 10
14233.980651705007
 20
32444.816899145248
 11
13665.590026705013
 21
32444.816899145248
  0
LINE
  8
_0-0_
  6
CONTINUOUS
 62
    7
 10
13665.590026705013
 20
32471.320317113998
 11
14233.980651705007
 21
32471.320317113998
  0
LINE
  8
_0-0_
  6
CONTINUOUS
 62
    7
 10
13621.422057955009
 20
32135.596440160873
 11
13621.422057955009
 21
32400.644047582744
  0
LINE
  8
_0-0_
  6
CONTINUOUS
 62
    7
 10
13594.910339205013
 20
32400.644047582744
 11
13594.910339205013
 21
32135.596440160873
  0
LINE
  8
_0-0_
  6
CONTINUOUS
 62
    7
 10
13921.808776705006
 20
32871.843754613998
 11
14460.730651705013
 21
32524.334233129623
  0
LINE
  8
_0-0_
  6
CONTINUOUS
 62
    7
 10
13977.769714205009
 20
32871.843754613998
 11
14463.976745455011
 21
32557.112553442123
  0
LINE
  8
_0-0_
  6
CONTINUOUS
 62
    7
 10
13344.593932955013
 20
32871.843754613998
 11
14499.632995455011
 21
32871.843754613998
  0
LINE
  8
_0-0_
  6
CONTINUOUS
 62
    7
 10
13344.593932955013
 20
32916.019047582748
 11
13344.593932955013
 21
32871.843754613998
  0
LINE
  8
_0-0_
  6
CONTINUOUS
 62
    7
 10
14504.683776705007
 20
32916.019047582748
 11
13344.593932955013
 21
32916.019047582748
  0
LINE
  8
_0-0_
  6
CONTINUOUS
 62
    7
 10
14714.007995455006
 20
31779.250981176494
 11
15102.750182955015
 21
31779.250981176494
  0
LINE
  8
_0-0_
  6
CONTINUOUS
 62
    7
 10
15102.750182955015
 20
31805.754155004623
 11
14714.007995455006
 21
31805.754155004623
  0
LINE
  8
_0-0_
  6
CONTINUOUS
 62
    7
 10
14714.007995455006
 20
32000.120610082748
 11
15055.629089205013
 21
32000.120610082748
  0
LINE
  8
_0-0_
  6
CONTINUOUS
 62
    7
 10
15055.629089205013
 20
32026.628910863998
 11
14714.007995455006
 21
32026.628910863998
  0
LINE
  8
_0-0_
  6
CONTINUOUS
 62
    7
 10
14714.007995455006
 20
32223.939701879623
 11
15102.750182955015
 21
32223.939701879623
  0
LINE
  8
_0-0_
  6
CONTINUOUS
 62
    7
 10
15102.750182955015
 20
32250.450444067123
 11
14714.007995455006
 21
32250.450444067123
  0
LINE
  8
_0-0_
  6
CONTINUOUS
 62
    7
 10
14714.007995455006
 20
32444.816899145248
 11
15102.750182955015
 21
32444.816899145248
  0
LINE
  8
_0-0_
  6
CONTINUOUS
 62
    7
 10
15102.750182955015
 20
32471.320317113998
 11
14714.007995455006
 21
32471.320317113998
  0
LINE
  8
_0-0_
  6
CONTINUOUS
 62
    7
 10
15120.422057955011
 20
32668.641117895248
 11
14714.007995455006
 21
32668.641117895248
  0
LINE
  8
_0-0_
  6
CONTINUOUS
 62
    7
 10
14714.007995455006
 20
32695.139408910869
 11
15120.422057955011
 21
32695.139408910869
  0
LINE
  8
_0-0_
  6
CONTINUOUS
 62
    7
 10
15120.422057955011
 20
32889.510746801498
 11
14714.007995455006
 21
32889.510746801498
  0
LINE
  8
_0-0_
  6
CONTINUOUS
 62
    7
 10
14714.007995455006
 20
32916.019047582748
 11
15120.422057955011
 21
32916.019047582748
  0
LINE
  8
_0-0_
  6
CONTINUOUS
 62
    7
 10
15120.422057955011
 20
32577.343266332748
 11
15120.422057955011
 21
33083.882328832748
  0
LINE
  8
_0-0_
  6
CONTINUOUS
 62
    7
 10
15158.711120455007
 20
33083.882328832748
 11
15158.711120455007
 21
32577.343266332748
  0
LINE
  8
_0-0_
  6
CONTINUOUS
 62
    7
 10
13106.039245455009
 20
33022.037113988998
 11
12393.343932955009
 21
32916.019047582748
  0
LINE
  8
_0-0_
  6
CONTINUOUS
 62
    7
 10
12193.086120455007
 20
31275.652836645248
 11
12181.308776705009
 21
31098.95471652806
  0
LINE
  8
_0-0_
  6
CONTINUOUS
 62
    7
 10
15129.257995455009
 20
31690.895024145248
 11
15102.750182955015
 21
31690.895024145248
  0
LINE
  8
_0-0_
  6
CONTINUOUS
 62
    7
 10
13450.601745455015
 20
31708.564701879623
 11
14365.683776705009
 21
31708.564701879623
  0
LINE
  8
_0-0_
  6
CONTINUOUS
 62
    7
 10
13450.601745455015
 20
31726.241947973369
 11
14369.011901705016
 21
31726.241947973369
  0
LINE
  8
_0-0_
  6
CONTINUOUS
 62
    7
 10
13450.601745455015
 20
31708.564701879623
 11
13450.601745455015
 21
31726.241947973369
  0
LINE
  8
_0-0_
  6
CONTINUOUS
 62
    7
 10
13503.617370455015
 20
31708.564701879623
 11
13503.617370455015
 21
31620.218754613994
  0
LINE
  8
_0-0_
  6
CONTINUOUS
 62
    7
 10
15391.773620455013
 20
31361.224858129623
 11
13519.136901705007
 21
31361.185307348369
  0
LINE
  8
_0-0_
  6
CONTINUOUS
 62
    7
 10
13519.855651705006
 20
31405.314946020248
 11
15390.390807955009
 21
31405.332280004619
  0
LINE
  8
_0-0_
  6
CONTINUOUS
 62
    7
 10
15102.750182955015
 20
31690.895024145248
 11
15102.750182955015
 21
31973.617436254619
  0
LINE
  8
_0-0_
  6
CONTINUOUS
 62
    7
 10
15129.257995455009
 20
31973.617436254619
 11
15129.257995455009
 21
31620.218754613994
  0
LINE
  8
_0-0_
  6
CONTINUOUS
 62
    7
 10
15423.761901705006
 20
31973.617436254619
 11
15423.761901705006
 21
31620.218754613994
  0
LINE
  8
_0-0_
  6
CONTINUOUS
 62
    7
 10
13503.617370455015
 20
32135.596440160873
 11
13503.617370455015
 21
31726.241947973369
  0
LINE
  8
_0-0_
  6
CONTINUOUS
 62
    7
 10
13215.011901705009
 20
31620.218754613994
 11
13215.011901705009
 21
31973.617436254619
  0
LINE
  8
_0-0_
  6
CONTINUOUS
 62
    7
 10
12923.449401705011
 20
31973.617436254619
 11
12923.449401705011
 21
31620.218754613994
  0
LINE
  8
_0-0_
  6
CONTINUOUS
 62
    7
 10
11922.156432955013
 20
31841.095951879623
 11
12101.793151705009
 21
31620.218754613994
  0
LINE
  8
_0-0_
  6
CONTINUOUS
 62
    7
 10
12278.492370455013
 20
31620.218754613994
 11
12278.492370455013
 21
31770.412358129623
  0
LINE
  8
_0-0_
  6
CONTINUOUS
 62
    7
 10
14678.668151705006
 20
31620.218754613994
 11
14678.668151705006
 21
33083.882328832748
  0
LINE
  8
_0-0_
  6
CONTINUOUS
 62
    7
 10
14714.007995455006
 20
33083.882328832748
 11
14714.007995455006
 21
31620.218754613994
  0
LINE
  8
_0-0_
  6
CONTINUOUS
 62
    7
 10
12393.343932955009
 20
32916.019047582748
 11
12393.343932955009
 21
31620.218754613994
  0
LINE
  8
_0-0_
  6
CONTINUOUS
 62
    7
 10
13282.746276705006
 20
31620.218754613994
 11
13106.039245455009
 21
33022.037113988998
  0
LINE
  8
_0-0_
  6
CONTINUOUS
 62
    7
 10
11630.597839205006
 20
31752.745121801498
 11
11630.597839205006
 21
31805.754155004623
  0
LINE
  8
_0-0_
  6
CONTINUOUS
 62
    7
 10
11630.597839205006
 20
31805.754155004623
 11
11745.449401705013
 21
31805.754155004623
  0
LINE
  8
_0-0_
  6
CONTINUOUS
 62
    7
 10
11533.410339205011
 20
31752.745121801498
 11
11710.109557955013
 21
31752.745121801498
  0
LINE
  8
_0-0_
  6
CONTINUOUS
 62
    7
 10
11533.410339205011
 20
31788.086918676498
 11
11434.625182955006
 21
31788.086918676498
  0
LINE
  8
_0-0_
  6
CONTINUOUS
 62
    7
 10
11235.953307955015
 20
31820.474369848369
 11
11129.945495455013
 21
31782.192875707744
  0
LINE
  8
_0-0_
  6
CONTINUOUS
 62
    7
 10
11129.945495455013
 20
31782.192875707744
 11
11127.031432955016
 21
31781.507572973373
  0
LINE
  8
_0-0_
  6
CONTINUOUS
 62
    7
 10
11127.031432955016
 20
31781.507572973373
 11
11123.918151705016
 21
31781.161137426501
  0
LINE
  8
_0-0_
  6
CONTINUOUS
 62
    7
 10
11123.918151705016
 20
31781.161137426501
 11
11121.113464205007
 21
31782.192875707744
  0
LINE
  8
_0-0_
  6
CONTINUOUS
 62
    7
 10
11121.113464205007
 20
31782.192875707744
 11
11116.968932955013
 21
31783.712162817126
  0
LINE
  8
_0-0_
  6
CONTINUOUS
 62
    7
 10
11116.968932955013
 20
31783.712162817126
 11
11112.965026705013
 21
31785.592778051494
  0
LINE
  8
_0-0_
  6
CONTINUOUS
 62
    7
 10
11112.965026705013
 20
31785.592778051494
 11
11109.336120455009
 21
31788.086918676498
  0
LINE
  8
_0-0_
  6
CONTINUOUS
 62
    7
 10
11109.336120455009
 20
31788.086918676498
 11
11104.718932955006
 21
31791.249272192123
  0
LINE
  8
_0-0_
  6
CONTINUOUS
 62
    7
 10
11104.718932955006
 20
31791.249272192123
 11
11100.472839205009
 21
31795.096928442119
  0
LINE
  8
_0-0_
  6
CONTINUOUS
 62
    7
 10
11100.472839205009
 20
31795.096928442119
 11
11097.547057955013
 21
31799.862553442119
  0
LINE
  8
_0-0_
  6
CONTINUOUS
 62
    7
 10
11097.547057955013
 20
31799.862553442119
 11
11094.328307955016
 21
31805.110844457748
  0
LINE
  8
_0-0_
  6
CONTINUOUS
 62
    7
 10
11094.328307955016
 20
31805.110844457748
 11
11092.757995455009
 21
31811.660649145244
  0
LINE
  8
_0-0_
  6
CONTINUOUS
 62
    7
 10
11092.757995455009
 20
31811.660649145244
 11
11094.613464205009
 21
31817.534672582748
  0
LINE
  8
_0-0_
  6
CONTINUOUS
 62
    7
 10
11094.613464205009
 20
31817.534672582748
 11
11097.121276705013
 21
31825.539555395251
  0
LINE
  8
_0-0_
  6
CONTINUOUS
 62
    7
 10
11097.121276705013
 20
31825.539555395251
 11
11100.047057955009
 21
31833.417973363998
  0
LINE
  8
_0-0_
  6
CONTINUOUS
 62
    7
 10
11100.047057955009
 20
31833.417973363998
 11
11103.441589205011
 21
31841.095951879623
  0
LINE
  8
_0-0_
  6
CONTINUOUS
 62
    7
 10
11103.441589205011
 20
31841.095951879623
 11
11109.136901705006
 21
31853.943119848373
  0
LINE
  8
_0-0_
  6
CONTINUOUS
 62
    7
 10
11109.136901705006
 20
31853.943119848373
 11
11115.101745455013
 21
31866.671391332751
  0
LINE
  8
_0-0_
  6
CONTINUOUS
 62
    7
 10
11115.101745455013
 20
31866.671391332751
 11
11121.113464205007
 21
31879.379887426494
  0
LINE
  8
_0-0_
  6
CONTINUOUS
 62
    7
 10
11121.113464205007
 20
31879.379887426494
 11
11129.629089205013
 21
31897.381108129623
  0
LINE
  8
_0-0_
  6
CONTINUOUS
 62
    7
 10
11129.629089205013
 20
31897.381108129623
 11
11141.519714205015
 21
31913.531498754623
  0
LINE
  8
_0-0_
  6
CONTINUOUS
 62
    7
 10
11141.519714205015
 20
31913.531498754623
 11
11153.507995455016
 21
31929.439457738998
  0
LINE
  8
_0-0_
  6
CONTINUOUS
 62
    7
 10
11200.754089205009
 20
31738.344242895248
 11
11297.808776705006
 21
31964.786137426494
  0
LINE
  8
_0-0_
  6
CONTINUOUS
 62
    7
 10
11359.660339205016
 20
31964.786137426494
 11
11453.890807955009
 21
31740.962162817123
  0
LINE
  8
_0-0_
  6
CONTINUOUS
 62
    7
 10
11312.531432955006
 20
31149.01428684056
 11
11323.761901705006
 21
31328.521977270248
  0
LINE
  8
_0-0_
  6
CONTINUOUS
 62
    7
 10
11294.871276705009
 20
31134.290409887431
 11
11306.648620455007
 21
31346.335209692119
  0
LINE
  8
_0-0_
  6
CONTINUOUS
 62
    7
 10
11533.410339205011
 20
31673.227787817119
 11
11159.386901705011
 21
31673.227787817119
  0
LINE
  8
_0-0_
  6
CONTINUOUS
 62
    7
 10
11630.597839205006
 20
31673.227787817119
 11
11630.597839205006
 21
31708.564701879623
  0
LINE
  8
_0-0_
  6
CONTINUOUS
 62
    7
 10
11745.449401705013
 20
31673.227787817119
 11
11630.597839205006
 21
31673.227787817119
  0
LINE
  8
_0-0_
  6
CONTINUOUS
 62
    7
 10
11312.531432955006
 20
31596.657719457751
 11
11312.531432955006
 21
31532.009037817123
  0
LINE
  8
_0-0_
  6
CONTINUOUS
 62
    7
 10
11710.109557955013
 20
31620.218754613994
 11
11710.109557955013
 21
31509.673832738998
  0
LINE
  8
_0-0_
  6
CONTINUOUS
 62
    7
 10
11710.109557955013
 20
31708.564701879623
 11
11533.410339205011
 21
31708.564701879623
  0
LINE
  8
_0-0_
  6
CONTINUOUS
 62
    7
 10
11230.074401705007
 20
31696.789067113998
 11
11433.273620455009
 21
31696.789067113998
  0
LINE
  8
_0-0_
  6
CONTINUOUS
 62
    7
 10
11336.093932955009
 20
31673.227787817119
 11
11336.093932955009
 21
31596.657719457751
  0
LINE
  8
_0-0_
  6
CONTINUOUS
 62
    7
 10
11336.093932955009
 20
31596.657719457751
 11
11297.808776705006
 21
31596.657719457751
  0
LINE
  8
_0-0_
  6
CONTINUOUS
 62
    7
 10
11297.808776705006
 20
31596.657719457751
 11
11297.808776705006
 21
31673.227787817119
  0
LINE
  8
_0-0_
  6
CONTINUOUS
 62
    7
 10
9589.7189329550092
 20
31643.398930395244
 11
9589.7189329550092
 21
31855.061528051498
  0
LINE
  8
_0-0_
  6
CONTINUOUS
 62
    7
 10
9457.1798704550129
 20
31855.061528051498
 11
9457.1798704550129
 21
31651.893559301498
  0
LINE
  8
_0-0_
  6
CONTINUOUS
 62
    7
 10
11745.449401705013
 20
31841.095951879623
 11
11745.449401705013
 21
31620.218754613994
  0
LINE
  8
_0-0_
  6
CONTINUOUS
 62
    7
 10
11710.109557955013
 20
31752.745121801498
 11
11710.109557955013
 21
31708.564701879623
  0
LINE
  8
_0-0_
  6
CONTINUOUS
 62
    7
 10
11159.386901705011
 20
31673.227787817119
 11
11142.515807955009
 21
31673.302006567123
  0
LINE
  8
_0-0_
  6
CONTINUOUS
 62
    7
 10
11142.515807955009
 20
31673.302006567123
 11
11125.355651705013
 21
31673.826664770248
  0
LINE
  8
_0-0_
  6
CONTINUOUS
 62
    7
 10
11125.355651705013
 20
31673.826664770248
 11
11109.336120455009
 21
31679.119389379623
  0
LINE
  8
_0-0_
  6
CONTINUOUS
 62
    7
 10
11109.336120455009
 20
31679.119389379623
 11
11095.468932955009
 21
31683.694584692119
  0
LINE
  8
_0-0_
  6
CONTINUOUS
 62
    7
 10
11095.468932955009
 20
31683.694584692119
 11
11081.679870455013
 21
31688.502446020248
  0
LINE
  8
_0-0_
  6
CONTINUOUS
 62
    7
 10
11081.679870455013
 20
31688.502446020248
 11
11068.101745455009
 21
31693.844487035869
  0
LINE
  8
_0-0_
  6
CONTINUOUS
 62
    7
 10
11068.101745455009
 20
31693.844487035869
 11
11055.804870455006
 21
31698.681889379623
  0
LINE
  8
_0-0_
  6
CONTINUOUS
 62
    7
 10
11055.804870455006
 20
31698.681889379623
 11
11043.273620455011
 21
31703.489750707748
  0
LINE
  8
_0-0_
  6
CONTINUOUS
 62
    7
 10
11043.273620455011
 20
31703.489750707748
 11
11032.757995455006
 21
31711.511723363998
  0
LINE
  8
_0-0_
  6
CONTINUOUS
 62
    7
 10
11032.757995455006
 20
31711.511723363998
 11
11022.062682955016
 21
31719.679692113998
  0
LINE
  8
_0-0_
  6
CONTINUOUS
 62
    7
 10
11022.062682955016
 20
31719.679692113998
 11
11018.879089205006
 21
31733.944584692119
  0
LINE
  8
_0-0_
  6
CONTINUOUS
 62
    7
 10
11018.879089205006
 20
31733.944584692119
 11
11015.086120455009
 21
31746.853520238994
  0
LINE
  8
_0-0_
  6
CONTINUOUS
 62
    7
 10
11015.086120455009
 20
31746.853520238994
 11
11011.988464205013
 21
31757.426762426498
  0
LINE
  8
_0-0_
  6
CONTINUOUS
 62
    7
 10
11011.988464205013
 20
31757.426762426498
 11
11009.172057955016
 21
31768.224858129623
  0
LINE
  8
_0-0_
  6
CONTINUOUS
 62
    7
 10
11009.172057955016
 20
31768.224858129623
 11
11009.207214205015
 21
31779.250981176494
  0
LINE
  8
_0-0_
  6
CONTINUOUS
 62
    7
 10
11009.207214205015
 20
31779.250981176494
 11
11009.230651705013
 21
31789.346440160869
  0
LINE
  8
_0-0_
  6
CONTINUOUS
 62
    7
 10
11009.230651705013
 20
31789.346440160869
 11
11010.711120455016
 21
31799.600346410869
  0
LINE
  8
_0-0_
  6
CONTINUOUS
 62
    7
 10
11010.711120455016
 20
31799.600346410869
 11
11015.086120455009
 21
31808.698735082748
  0
LINE
  8
_0-0_
  6
CONTINUOUS
 62
    7
 10
11015.086120455009
 20
31808.698735082748
 11
11020.437682955015
 21
31819.781498754623
  0
LINE
  8
_0-0_
  6
CONTINUOUS
 62
    7
 10
11020.437682955015
 20
31819.781498754623
 11
11026.402526705009
 21
31830.560063207748
  0
LINE
  8
_0-0_
  6
CONTINUOUS
 62
    7
 10
11026.402526705009
 20
31830.560063207748
 11
11032.757995455006
 21
31841.095951879623
  0
LINE
  8
_0-0_
  6
CONTINUOUS
 62
    7
 10
11032.757995455006
 20
31841.095951879623
 11
11043.047057955016
 21
31858.109867895248
  0
LINE
  8
_0-0_
  6
CONTINUOUS
 62
    7
 10
11043.047057955016
 20
31858.109867895248
 11
11054.109557955007
 21
31874.624028051501
  0
LINE
  8
_0-0_
  6
CONTINUOUS
 62
    7
 10
11054.109557955007
 20
31874.624028051501
 11
11065.160339205011
 21
31891.155522192123
  0
LINE
  8
_0-0_
  6
CONTINUOUS
 62
    7
 10
11065.160339205011
 20
31891.155522192123
 11
11081.414245455016
 21
31915.508549535873
  0
LINE
  8
_0-0_
  6
CONTINUOUS
 62
    7
 10
11081.414245455016
 20
31915.508549535873
 11
11104.230651705006
 21
31934.593510473373
  0
LINE
  8
_0-0_
  6
CONTINUOUS
 62
    7
 10
11104.230651705006
 20
31934.593510473373
 11
11126.996276705006
 21
31953.000737035869
  0
LINE
  8
_0-0_
  6
CONTINUOUS
 62
    7
 10
11323.761901705006
 20
31328.521977270248
 11
12193.086120455007
 21
31275.652836645248
  0
LINE
  8
_0-0_
  6
CONTINUOUS
 62
    7
 10
12181.308776705009
 20
31098.95471652806
 11
11312.531432955006
 21
31149.01428684056
  0
LINE
  8
_0-0_
  6
CONTINUOUS
 62
    7
 10
11306.648620455007
 20
31346.335209692119
 11
12210.757995455015
 21
31293.326176488994
  0
LINE
  8
_0-0_
  6
CONTINUOUS
 62
    7
 10
11922.156432955013
 20
31841.095951879623
 11
11745.449401705013
 21
31841.095951879623
  0
LINE
  8
_0-0_
  6
CONTINUOUS
 62
    7
 10
13519.136901705007
 20
31361.185307348369
 11
11256.582214205013
 21
31491.230961645248
  0
LINE
  8
_0-0_
  6
CONTINUOUS
 62
    7
 10
11212.402526705011
 20
31537.757084692123
 11
13519.855651705006
 21
31405.314946020248
  0
LINE
  8
_0-0_
  6
CONTINUOUS
 62
    7
 10
16174.738464205006
 20
31222.645024145248
 11
15305.957214205011
 21
31178.467045629623
  0
LINE
  8
_0-0_
  6
CONTINUOUS
 62
    7
 10
15285.336120455009
 20
31193.192143285869
 11
16192.390807955007
 21
31240.312016332748
  0
LINE
  8
_0-0_
  6
CONTINUOUS
 62
    7
 10
15500.328307955009
 20
32126.755375707744
 11
15055.629089205013
 21
32126.755375707744
  0
LINE
  8
_0-0_
  6
CONTINUOUS
 62
    7
 10
15055.629089205013
 20
31973.617436254619
 11
15500.328307955009
 21
31973.617436254619
  0
LINE
  8
_0-0_
  6
CONTINUOUS
 62
    7
 10
15102.750182955015
 20
32577.343266332748
 11
15600.449401705009
 21
32577.343266332748
  0
LINE
  8
_0-0_
  6
CONTINUOUS
 62
    7
 10
15600.449401705009
 20
31690.895024145248
 11
15423.761901705006
 21
31690.895024145248
  0
LINE
  8
_0-0_
  6
CONTINUOUS
 62
    7
 10
16251.308776705013
 20
31405.230717504623
 11
15391.773620455013
 21
31361.224858129623
  0
LINE
  8
_0-0_
  6
CONTINUOUS
 62
    7
 10
15390.390807955009
 20
31405.332280004619
 11
16295.476745455016
 21
31449.408696020248
  0
LINE
  8
_0-0_
  6
CONTINUOUS
 62
    7
 10
15048.773620455006
 20
33148.671879613998
 11
16224.797057955016
 21
35242.567143285873
  0
LINE
  8
_0-0_
  6
CONTINUOUS
 62
    7
 10
15179.320495455011
 20
33148.671879613998
 11
16269.363464205015
 21
35092.826420629623
  0
LINE
  8
_0-0_
  6
CONTINUOUS
 62
    7
 10
16872.699401705009
 20
35307.356694067123
 11
14883.578307955009
 21
35307.356694067123
  0
LINE
  8
_0-0_
  6
CONTINUOUS
 62
    7
 10
16221.847839205009
 20
33360.710697973373
 11
14876.332214205013
 21
35242.094487035873
  0
LINE
  8
_0-0_
  6
CONTINUOUS
 62
    7
 10
14865.449401705007
 20
35146.592533910873
 11
16151.168151705007
 21
33348.934819067123
  0
LINE
  8
_0-0_
  6
CONTINUOUS
 62
    7
 10
15529.777526705016
 20
31620.218754613994
 11
11710.109557955013
 21
31620.218754613994
  0
LINE
  8
_0-0_
  6
CONTINUOUS
 62
    7
 10
15709.425964205013
 20
33083.882328832748
 11
14631.281432955006
 21
33083.882328832748
  0
LINE
  8
_0-0_
  6
CONTINUOUS
 62
    7
 10
15709.425964205013
 20
33148.671879613998
 11
14637.437682955009
 21
33148.671879613998
  0
LINE
  8
_0-0_
  6
CONTINUOUS
 62
    7
 10
16872.699401705009
 20
35242.567143285873
 11
14875.984557955007
 21
35242.567143285873
  0
LINE
  8
_0-0_
  6
CONTINUOUS
 62
    7
 10
16872.699401705009
 20
35307.356694067123
 11
14883.578307955009
 21
35307.356694067123
  0
LINE
  8
_0-0_
  6
CONTINUOUS
 62
    7
 10
10474.531432955007
 20
32758.885014379623
 11
10474.531432955007
 21
34647.820561254623
  0
LINE
  8
_0-0_
  6
CONTINUOUS
 62
    7
 10
10274.527526705015
 20
35972.821049535873
 11
10274.527526705015
 21
35047.819584692123
  0
LINE
  8
_0-0_
  6
CONTINUOUS
 62
    7
 10
11574.535339205011
 20
35972.821049535873
 11
11574.535339205011
 21
35047.819584692123
  0
LINE
  8
_0-0_
  6
CONTINUOUS
 62
    7
 10
14174.523620455011
 20
35972.821049535873
 11
14174.523620455011
 21
35047.819584692123
  0
LINE
  8
_0-0_
  6
CONTINUOUS
 62
    7
 10
15474.527526705015
 20
35972.821049535873
 11
15474.527526705015
 21
35047.819584692123
  0
LINE
  8
_0-0_
  6
CONTINUOUS
 62
    7
 10
16774.515807955013
 20
35972.821049535873
 11
16774.515807955013
 21
35047.819584692123
  0
LINE
  8
_0-0_
  6
CONTINUOUS
 62
    7
 10
15085.468932955007
 20
33369.549076879623
 11
15682.922057955011
 21
33369.549076879623
  0
LINE
  8
_0-0_
  6
CONTINUOUS
 62
    7
 10
15086.320495455016
 20
33396.052494848373
 11
15682.922057955011
 21
33396.052494848373
  0
LINE
  8
_0-0_
  6
CONTINUOUS
 62
    7
 10
15085.078307955007
 20
33690.552494848373
 11
15682.922057955011
 21
33690.552494848373
  0
LINE
  8
_0-0_
  6
CONTINUOUS
 62
    7
 10
15085.078307955007
 20
33717.743901098373
 11
15682.922057955011
 21
33717.743901098373
  0
LINE
  8
_0-0_
  6
CONTINUOUS
 62
    7
 10
15085.078307955007
 20
34035.119877660873
 11
15609.289245455011
 21
34035.119877660873
  0
LINE
  8
_0-0_
  6
CONTINUOUS
 62
    7
 10
15085.078307955007
 20
34008.614506567123
 11
15609.289245455011
 21
34008.614506567123
  0
LINE
  8
_0-0_
  6
CONTINUOUS
 62
    7
 10
15058.570495455013
 20
34019.699467504623
 11
15058.570495455013
 21
33148.671879613998
  0
LINE
  8
_0-0_
  6
CONTINUOUS
 62
    7
 10
15085.078307955007
 20
34038.755131567123
 11
15085.078307955007
 21
33148.671879613998
  0
LINE
  8
_0-0_
  6
CONTINUOUS
 62
    7
 10
14663.824401705006
 20
33369.549076879623
 11
15059.078307955007
 21
33369.549076879623
  0
LINE
  8
_0-0_
  6
CONTINUOUS
 62
    7
 10
14666.011901705007
 20
33396.052494848373
 11
15056.941589205007
 21
33396.052494848373
  0
LINE
  8
_0-0_
  6
CONTINUOUS
 62
    7
 10
14699.230651705011
 20
33690.552494848373
 11
15058.570495455013
 21
33690.552494848373
  0
LINE
  8
_0-0_
  6
CONTINUOUS
 62
    7
 10
14702.449401705007
 20
33717.743901098373
 11
15058.570495455013
 21
33717.743901098373
  0
LINE
  8
_0-0_
  6
CONTINUOUS
 62
    7
 10
14738.820495455013
 20
34035.119877660873
 11
15020.285339205009
 21
34035.119877660873
  0
LINE
  8
_0-0_
  6
CONTINUOUS
 62
    7
 10
14735.797057955006
 20
34008.614506567123
 11
15020.285339205009
 21
34008.614506567123
  0
LINE
  8
_0-0_
  6
CONTINUOUS
 62
    7
 10
15682.922057955011
 20
33148.671879613998
 11
15682.922057955011
 21
33937.933354223373
  0
LINE
  8
_0-0_
  6
CONTINUOUS
 62
    7
 10
15709.425964205013
 20
33937.933354223373
 11
15709.425964205013
 21
33083.882328832748
  0
LINE
  8
_0-0_
  6
CONTINUOUS
 62
    7
 10
15891.121276705007
 20
31551.397221410873
 11
15833.113464205007
 21
31425.847416723373
  0
LINE
  8
_0-0_
  6
CONTINUOUS
 62
    7
 10
16057.644714205015
 20
31551.397221410873
 11
16115.832214205011
 21
31440.572514379626
  0
LINE
  8
_0-0_
  6
CONTINUOUS
 62
    7
 10
14534.363464205013
 20
33192.849858129623
 11
14269.328307955016
 21
33192.849858129623
  0
LINE
  8
_0-0_
  6
CONTINUOUS
 62
    7
 10
14534.363464205013
 20
33101.554447973373
 11
14269.328307955016
 21
33166.343998754623
  0
LINE
  8
_0-0_
  6
CONTINUOUS
 62
    7
 10
14269.328307955016
 20
33166.343998754623
 11
14269.328307955016
 21
33345.988041723373
  0
LINE
  8
_0-0_
  6
CONTINUOUS
 62
    7
 10
14269.328307955016
 20
33345.988041723373
 11
14375.336120455006
 21
33345.988041723373
  0
LINE
  8
_0-0_
  6
CONTINUOUS
 62
    7
 10
14375.336120455006
 20
33345.988041723373
 11
14375.336120455006
 21
33192.849858129623
  0
LINE
  8
_0-0_
  6
CONTINUOUS
 62
    7
 10
14269.328307955016
 20
33319.482182348373
 11
14313.488464205011
 21
33319.482182348373
  0
LINE
  8
_0-0_
  6
CONTINUOUS
 62
    7
 10
14313.488464205011
 20
33319.482182348373
 11
14313.488464205011
 21
33231.133793676498
  0
LINE
  8
_0-0_
  6
CONTINUOUS
 62
    7
 10
14313.488464205011
 20
33231.133793676498
 11
14269.328307955016
 21
33231.133793676498
  0
LINE
  8
_0-0_
  6
CONTINUOUS
 62
    7
 10
11613.343932955013
 20
31651.653569067123
 11
11674.496276705009
 21
31511.866215551498
  0
LINE
  8
_0-0_
  6
CONTINUOUS
 62
    7
 10
11468.379089205007
 20
31653.722172582748
 11
11406.777526705013
 21
31525.977787817123
  0
LINE
  8
_0-0_
  6
CONTINUOUS
 62
    7
 10
14655.109557955006
 20
34258.939213598373
 11
14390.058776705007
 21
34258.939213598373
  0
LINE
  8
_0-0_
  6
CONTINUOUS
 62
    7
 10
14655.109557955006
 20
34167.641362035873
 11
14390.058776705007
 21
34232.428471410873
  0
LINE
  8
_0-0_
  6
CONTINUOUS
 62
    7
 10
14390.058776705007
 20
34232.428471410873
 11
14390.058776705007
 21
34412.079838598373
  0
LINE
  8
_0-0_
  6
CONTINUOUS
 62
    7
 10
14390.058776705007
 20
34412.079838598373
 11
14496.074401705016
 21
34412.079838598373
  0
LINE
  8
_0-0_
  6
CONTINUOUS
 62
    7
 10
14496.074401705016
 20
34412.079838598373
 11
14496.074401705016
 21
34258.939213598373
  0
LINE
  8
_0-0_
  6
CONTINUOUS
 62
    7
 10
14390.058776705007
 20
34385.571537817123
 11
14434.238464205009
 21
34385.571537817123
  0
LINE
  8
_0-0_
  6
CONTINUOUS
 62
    7
 10
14434.238464205009
 20
34385.571537817123
 11
14434.238464205009
 21
34297.223393285873
  0
LINE
  8
_0-0_
  6
CONTINUOUS
 62
    7
 10
14434.238464205009
 20
34297.223393285873
 11
14390.058776705007
 21
34297.223393285873
  0
LINE
  8
_0-0_
  6
CONTINUOUS
 62
    7
 10
15049.523620455011
 20
33997.823490942123
 11
15899.535339205011
 21
33997.823490942123
  0
LINE
  8
_0-0_
  6
CONTINUOUS
 62
    7
 10
15849.527526705015
 20
33947.823490942123
 11
15099.523620455011
 21
33947.823490942123
  0
LINE
  8
_0-0_
  6
CONTINUOUS
 62
    7
 10
15049.523620455011
 20
33247.821049535873
 11
15899.535339205011
 21
33247.821049535873
  0
LINE
  8
_0-0_
  6
CONTINUOUS
 62
    7
 10
15099.523620455011
 20
33297.825932348373
 11
15849.527526705015
 21
33297.825932348373
  0
LINE
  8
_0-0_
  6
CONTINUOUS
 62
    7
 10
15474.527526705015
 20
33947.823490942123
 11
15474.527526705015
 21
33297.825932348373
  0
LINE
  8
_0-0_
  6
CONTINUOUS
 62
    7
 10
15099.523620455011
 20
33947.823490942123
 11
15099.523620455011
 21
33297.825932348373
  0
LINE
  8
_0-0_
  6
CONTINUOUS
 62
    7
 10
15049.523620455011
 20
33247.821049535873
 11
15049.523620455011
 21
33997.823490942123
  0
LINE
  8
_0-0_
  6
CONTINUOUS
 62
    7
 10
15849.527526705015
 20
33297.825932348373
 11
15849.527526705015
 21
33947.823490942123
  0
LINE
  8
_0-0_
  6
CONTINUOUS
 62
    7
 10
15899.535339205011
 20
33247.821049535873
 11
15899.535339205011
 21
33997.823490942123
  0
LINE
  8
_0-0_
  6
CONTINUOUS
 62
    7
 10
13049.519714205007
 20
33997.823490942123
 11
13899.523620455011
 21
33997.823490942123
  0
LINE
  8
_0-0_
  6
CONTINUOUS
 62
    7
 10
13849.523620455011
 20
33947.823490942123
 11
13099.527526705015
 21
33947.823490942123
  0
LINE
  8
_0-0_
  6
CONTINUOUS
 62
    7
 10
13049.519714205007
 20
33247.821049535873
 11
13899.523620455011
 21
33247.821049535873
  0
LINE
  8
_0-0_
  6
CONTINUOUS
 62
    7
 10
13099.527526705015
 20
33297.825932348373
 11
13849.523620455011
 21
33297.825932348373
  0
LINE
  8
_0-0_
  6
CONTINUOUS
 62
    7
 10
13474.527526705015
 20
33947.823490942123
 11
13474.527526705015
 21
33297.825932348373
  0
LINE
  8
_0-0_
  6
CONTINUOUS
 62
    7
 10
13099.527526705015
 20
33947.823490942123
 11
13099.527526705015
 21
33297.825932348373
  0
LINE
  8
_0-0_
  6
CONTINUOUS
 62
    7
 10
13049.519714205007
 20
33247.821049535873
 11
13049.519714205007
 21
33997.823490942123
  0
LINE
  8
_0-0_
  6
CONTINUOUS
 62
    7
 10
13849.523620455011
 20
33297.825932348373
 11
13849.523620455011
 21
33947.823490942123
  0
LINE
  8
_0-0_
  6
CONTINUOUS
 62
    7
 10
13899.523620455011
 20
33247.821049535873
 11
13899.523620455011
 21
33997.823490942123
  0
LINE
  8
_0-0_
  6
CONTINUOUS
 62
    7
 10
10473.457214205007
 20
36247.821049535873
 11
11424.523620455011
 21
36247.821049535873
  0
LINE
  8
_0-0_
  6
CONTINUOUS
 62
    7
 10
11424.523620455011
 20
36297.823490942115
 11
10485.961120455011
 21
36297.823490942115
  0
LINE
  8
_0-0_
  6
CONTINUOUS
 62
    7
 10
16286.640807955007
 20
36226.199467504623
 11
15079.582214205016
 21
34073.587162817123
  0
LINE
  8
_0-0_
  6
CONTINUOUS
 62
    7
 10
15102.574401705009
 20
34061.321537817123
 11
16286.640807955007
 21
36174.157963598373
  0
LINE
  8
_0-0_
  6
CONTINUOUS
 62
    7
 10
15765.379089205009
 20
34424.575444067123
 11
15765.379089205009
 21
35242.567143285873
  0
LINE
  8
_0-0_
  6
CONTINUOUS
 62
    7
 10
15791.875182955016
 20
34471.769780004623
 11
15791.875182955016
 21
35291.304936254623
  0
LINE
  8
_0-0_
  6
CONTINUOUS
 62
    7
 10
16436.832214205013
 20
36193.807377660865
 11
16802.015807955009
 21
36193.807377660865
  0
LINE
  8
_0-0_
  6
CONTINUOUS
 62
    7
 10
16436.832214205013
 20
36167.299076879623
 11
16802.015807955009
 21
36167.299076879623
  0
LINE
  8
_0-0_
  6
CONTINUOUS
 62
    7
 10
16410.332214205013
 20
35554.734623754623
 11
16802.015807955009
 21
35554.734623754623
  0
LINE
  8
_0-0_
  6
CONTINUOUS
 62
    7
 10
16410.332214205013
 20
35528.236088598373
 11
16802.015807955009
 21
35528.236088598373
  0
LINE
  8
_0-0_
  6
CONTINUOUS
 62
    7
 10
16410.332214205013
 20
35840.404057348373
 11
16802.015807955009
 21
35840.404057348373
  0
LINE
  8
_0-0_
  6
CONTINUOUS
 62
    7
 10
16410.332214205013
 20
35866.909428442123
 11
16802.015807955009
 21
35866.909428442123
  0
LINE
  8
_0-0_
  6
CONTINUOUS
 62
    7
 10
16802.015807955009
 20
36167.299076879623
 11
16802.015807955009
 21
35307.356694067123
  0
LINE
  8
_0-0_
  6
CONTINUOUS
 62
    7
 10
16828.515807955009
 20
35307.356694067123
 11
16828.515807955009
 21
36167.299076879623
  0
LINE
  8
_0-0_
  6
CONTINUOUS
 62
    7
 10
16383.824401705009
 20
35307.356694067123
 11
16383.824401705009
 21
36179.663822973373
  0
LINE
  8
_0-0_
  6
CONTINUOUS
 62
    7
 10
16410.332214205013
 20
35307.356694067123
 11
16410.332214205013
 21
36167.299076879623
  0
LINE
  8
_0-0_
  6
CONTINUOUS
 62
    7
 10
16383.824401705009
 20
38479.124272192123
 11
16383.824401705009
 21
37501.383061254623
  0
LINE
  8
_0-0_
  6
CONTINUOUS
 62
    7
 10
15806.605651705013
 20
38638.153569067123
 11
15806.605651705013
 21
39127.022709692123
  0
LINE
  8
_0-0_
  6
CONTINUOUS
 62
    7
 10
15780.101745455011
 20
39127.022709692123
 11
15780.101745455011
 21
38638.153569067123
  0
LINE
  8
_0-0_
  6
CONTINUOUS
 62
    7
 10
16224.797057955016
 20
38638.153569067123
 11
16224.797057955016
 21
39127.022709692123
  0
LINE
  8
_0-0_
  6
CONTINUOUS
 62
    7
 10
16251.308776705013
 20
38611.650639379623
 11
16251.308776705013
 21
39153.531498754623
  0
LINE
  8
_0-0_
  6
CONTINUOUS
 62
    7
 10
16648.875182955013
 20
39365.567631567123
 11
16383.824401705009
 21
38479.124272192123
  0
LINE
  8
_0-0_
  6
CONTINUOUS
 62
    7
 10
16784.343932955013
 20
39392.075444067123
 11
16784.343932955013
 21
39365.567631567123
  0
LINE
  8
_0-0_
  6
CONTINUOUS
 62
    7
 10
16286.640807955007
 20
37389.473881567115
 11
15703.836120455015
 21
36524.596928442123
  0
LINE
  8
_0-0_
  6
CONTINUOUS
 62
    7
 10
16286.640807955007
 20
37501.383061254623
 11
15667.855651705009
 21
36585.677494848365
  0
LINE
  8
_0-0_
  6
CONTINUOUS
 62
    7
 10
15035.015807955006
 20
37501.383061254623
 11
15035.015807955006
 21
37589.733647192123
  0
LINE
  8
_0-0_
  6
CONTINUOUS
 62
    7
 10
15035.015807955006
 20
37589.733647192123
 11
14413.629089205006
 21
37589.733647192123
  0
LINE
  8
_0-0_
  6
CONTINUOUS
 62
    7
 10
14413.629089205006
 20
37589.733647192123
 11
14413.629089205006
 21
37519.052983129623
  0
LINE
  8
_0-0_
  6
CONTINUOUS
 62
    7
 10
14413.629089205006
 20
37519.052983129623
 11
15035.015807955006
 21
37519.052983129623
  0
LINE
  8
_0-0_
  6
CONTINUOUS
 62
    7
 10
15037.156432955009
 20
37501.383061254623
 11
15067.406432955011
 21
37251.060795629623
  0
LINE
  8
_0-0_
  6
CONTINUOUS
 62
    7
 10
15067.406432955011
 20
37251.060795629623
 11
15014.406432955013
 21
37251.060795629623
  0
LINE
  8
_0-0_
  6
CONTINUOUS
 62
    7
 10
15014.406432955013
 20
37251.060795629623
 11
14982.000182955016
 21
37519.052983129623
  0
LINE
  8
_0-0_
  6
CONTINUOUS
 62
    7
 10
14552.035339205009
 20
37519.052983129623
 11
15002.382995455013
 21
37335.227299535873
  0
LINE
  8
_0-0_
  6
CONTINUOUS
 62
    7
 10
15011.187682955006
 20
37277.672612035873
 11
14413.629089205006
 21
37519.052983129623
  0
LINE
  8
_0-0_
  6
CONTINUOUS
 62
    7
 10
15361.906432955016
 20
39127.022709692123
 11
15361.906432955016
 21
38638.153569067123
  0
LINE
  8
_0-0_
  6
CONTINUOUS
 62
    7
 10
15335.410339205009
 20
39153.531498754623
 11
15335.410339205009
 21
38611.650639379623
  0
LINE
  8
_0-0_
  6
CONTINUOUS
 62
    7
 10
14917.215026705015
 20
39365.567631567123
 11
14917.215026705015
 21
39392.075444067123
  0
LINE
  8
_0-0_
  6
CONTINUOUS
 62
    7
 10
15035.015807955006
 20
37589.733647192123
 11
16383.824401705009
 21
37589.733647192123
  0
LINE
  8
_0-0_
  6
CONTINUOUS
 62
    7
 10
15035.015807955006
 20
37501.383061254623
 11
16383.824401705009
 21
37501.383061254623
  0
LINE
  8
_0-0_
  6
CONTINUOUS
 62
    7
 10
15335.410339205009
 20
38611.650639379623
 11
16251.308776705013
 21
38611.650639379623
  0
LINE
  8
_0-0_
  6
CONTINUOUS
 62
    7
 10
15361.906432955016
 20
38638.153569067123
 11
16224.797057955016
 21
38638.153569067123
  0
LINE
  8
_0-0_
  6
CONTINUOUS
 62
    7
 10
16224.797057955016
 20
39127.022709692123
 11
15361.906432955016
 21
39127.022709692123
  0
LINE
  8
_0-0_
  6
CONTINUOUS
 62
    7
 10
16251.308776705013
 20
39153.531498754623
 11
15335.410339205009
 21
39153.531498754623
  0
LINE
  8
_0-0_
  6
CONTINUOUS
 62
    7
 10
16784.343932955013
 20
39365.567631567123
 11
14917.215026705015
 21
39365.567631567123
  0
LINE
  8
_0-0_
  6
CONTINUOUS
 62
    7
 10
14917.215026705015
 20
39392.075444067123
 11
16784.343932955013
 21
39392.075444067123
  0
LINE
  8
_0-0_
  6
CONTINUOUS
 62
    7
 10
16383.824401705009
 20
37501.383061254623
 11
16648.875182955013
 21
37501.383061254623
  0
LINE
  8
_0-0_
  6
CONTINUOUS
 62
    7
 10
16383.824401705009
 20
37410.090092504623
 11
16648.875182955013
 21
37474.880131567123
  0
LINE
  8
_0-0_
  6
CONTINUOUS
 62
    7
 10
16648.875182955013
 20
37474.880131567123
 11
16648.875182955013
 21
37654.515873754623
  0
LINE
  8
_0-0_
  6
CONTINUOUS
 62
    7
 10
16648.875182955013
 20
37654.515873754623
 11
16542.851745455013
 21
37654.515873754623
  0
LINE
  8
_0-0_
  6
CONTINUOUS
 62
    7
 10
16542.851745455013
 20
37654.515873754623
 11
16542.851745455013
 21
37501.383061254623
  0
LINE
  8
_0-0_
  6
CONTINUOUS
 62
    7
 10
16648.875182955013
 20
37628.017826879623
 11
16604.707214205009
 21
37628.017826879623
  0
LINE
  8
_0-0_
  6
CONTINUOUS
 62
    7
 10
16604.707214205009
 20
37628.017826879623
 11
16604.707214205009
 21
37539.669194067115
  0
LINE
  8
_0-0_
  6
CONTINUOUS
 62
    7
 10
16604.707214205009
 20
37539.669194067115
 11
16648.875182955013
 21
37539.669194067115
  0
LINE
  8
_0-0_
  6
CONTINUOUS
 62
    7
 10
16383.824401705009
 20
38387.826420629623
 11
16648.875182955013
 21
38387.826420629623
  0
LINE
  8
_0-0_
  6
CONTINUOUS
 62
    7
 10
16383.824401705009
 20
38296.533451879623
 11
16648.875182955013
 21
38361.320561254623
  0
LINE
  8
_0-0_
  6
CONTINUOUS
 62
    7
 10
16648.875182955013
 20
38361.320561254623
 11
16648.875182955013
 21
38540.968998754623
  0
LINE
  8
_0-0_
  6
CONTINUOUS
 62
    7
 10
16648.875182955013
 20
38540.968998754623
 11
16542.851745455013
 21
38540.968998754623
  0
LINE
  8
_0-0_
  6
CONTINUOUS
 62
    7
 10
16542.851745455013
 20
38540.968998754623
 11
16542.851745455013
 21
38387.826420629623
  0
LINE
  8
_0-0_
  6
CONTINUOUS
 62
    7
 10
16648.875182955013
 20
38514.468998754623
 11
16604.707214205009
 21
38514.468998754623
  0
LINE
  8
_0-0_
  6
CONTINUOUS
 62
    7
 10
16604.707214205009
 20
38514.468998754623
 11
16604.707214205009
 21
38426.107670629623
  0
LINE
  8
_0-0_
  6
CONTINUOUS
 62
    7
 10
16604.707214205009
 20
38426.107670629623
 11
16648.875182955013
 21
38426.107670629623
  0
LINE
  8
_0-0_
  6
CONTINUOUS
 62
    7
 10
16383.824401705009
 20
36611.992924535873
 11
16648.875182955013
 21
36611.992924535873
  0
LINE
  8
_0-0_
  6
CONTINUOUS
 62
    7
 10
16383.824401705009
 20
36520.695072973373
 11
16648.875182955013
 21
36585.489506567123
  0
LINE
  8
_0-0_
  6
CONTINUOUS
 62
    7
 10
16648.875182955013
 20
36585.489506567123
 11
16648.875182955013
 21
36765.131108129623
  0
LINE
  8
_0-0_
  6
CONTINUOUS
 62
    7
 10
16648.875182955013
 20
36765.131108129623
 11
16542.851745455013
 21
36765.131108129623
  0
LINE
  8
_0-0_
  6
CONTINUOUS
 62
    7
 10
16542.851745455013
 20
36765.131108129623
 11
16542.851745455013
 21
36611.992924535873
  0
LINE
  8
_0-0_
  6
CONTINUOUS
 62
    7
 10
16648.875182955013
 20
36738.627690160873
 11
16604.707214205009
 21
36738.627690160873
  0
LINE
  8
_0-0_
  6
CONTINUOUS
 62
    7
 10
16604.707214205009
 20
36738.627690160873
 11
16604.707214205009
 21
36650.276615942123
  0
LINE
  8
_0-0_
  6
CONTINUOUS
 62
    7
 10
16604.707214205009
 20
36650.276615942123
 11
16648.875182955013
 21
36650.276615942123
  0
LINE
  8
_0-0_
  6
CONTINUOUS
 62
    7
 10
10773.465026705015
 20
37447.819584692123
 11
11424.523620455011
 21
37447.819584692123
  0
LINE
  8
_0-0_
  6
CONTINUOUS
 62
    7
 10
11424.523620455011
 20
37497.822514379623
 11
10785.961120455011
 21
37497.822514379623
  0
LINE
  8
_0-0_
  6
CONTINUOUS
 62
    7
 10
11073.457214205007
 20
38647.826420629623
 11
11424.523620455011
 21
38647.826420629623
  0
LINE
  8
_0-0_
  6
CONTINUOUS
 62
    7
 10
11424.523620455011
 20
38697.826420629623
 11
11085.957214205007
 21
38697.826420629623
  0
LINE
  8
_0-0_
  6
CONTINUOUS
 62
    7
 10
15662.304870455011
 20
37360.884037817123
 11
15662.304870455011
 21
36595.085209692123
  0
LINE
  8
_0-0_
  6
CONTINUOUS
 62
    7
 10
11574.535339205011
 20
38547.818608129623
 11
11950.011901705011
 21
38547.818608129623
  0
LINE
  8
_0-0_
  6
CONTINUOUS
 62
    7
 10
11950.011901705011
 20
38547.818608129623
 11
11950.011901705011
 21
38505.886967504623
  0
LINE
  8
_0-0_
  6
CONTINUOUS
 62
    7
 10
11950.011901705011
 20
38505.886967504623
 11
11574.535339205011
 21
38389.862553442123
  0
LINE
  8
_0-0_
  6
CONTINUOUS
 62
    7
 10
11574.535339205011
 20
38542.822514379623
 11
11950.011901705011
 21
38542.822514379623
  0
LINE
  8
_0-0_
  6
CONTINUOUS
 62
    7
 10
11750.808776705015
 20
38547.818608129623
 11
11750.808776705015
 21
38742.741459692123
  0
LINE
  8
_0-0_
  6
CONTINUOUS
 62
    7
 10
11750.808776705015
 20
38742.741459692123
 11
11922.539245455016
 21
38742.741459692123
  0
LINE
  8
_0-0_
  6
CONTINUOUS
 62
    7
 10
11922.539245455016
 20
38742.741459692123
 11
11922.539245455016
 21
38547.818608129623
  0
LINE
  8
_0-0_
  6
CONTINUOUS
 62
    7
 10
11574.535339205011
 20
40547.822514379623
 11
11950.011901705011
 21
40547.822514379623
  0
LINE
  8
_0-0_
  6
CONTINUOUS
 62
    7
 10
11950.011901705011
 20
40547.822514379623
 11
11950.011901705011
 21
40505.888920629623
  0
LINE
  8
_0-0_
  6
CONTINUOUS
 62
    7
 10
11950.011901705011
 20
40505.888920629623
 11
11574.535339205011
 21
40389.864506567123
  0
LINE
  8
_0-0_
  6
CONTINUOUS
 62
    7
 10
11574.535339205011
 20
40542.821537817123
 11
11950.011901705011
 21
40542.821537817123
  0
LINE
  8
_0-0_
  6
CONTINUOUS
 62
    7
 10
11750.808776705015
 20
40547.822514379623
 11
11750.808776705015
 21
40742.743412817123
  0
LINE
  8
_0-0_
  6
CONTINUOUS
 62
    7
 10
11750.808776705015
 20
40742.743412817123
 11
11922.539245455016
 21
40742.743412817123
  0
LINE
  8
_0-0_
  6
CONTINUOUS
 62
    7
 10
11922.539245455016
 20
40742.743412817123
 11
11922.539245455016
 21
40547.822514379623
  0
LINE
  8
_0-0_
  6
CONTINUOUS
 62
    7
 10
15688.797057955015
 20
37315.959233129623
 11
15688.797057955015
 21
36550.103276098373
  0
LINE
  8
_0-0_
  6
CONTINUOUS
 62
    7
 10
14481.379089205006
 20
38425.865483129623
 11
14481.359557955011
 21
37589.733647192123
  0
LINE
  8
_0-0_
  6
CONTINUOUS
 62
    7
 10
14454.851745455016
 20
37589.733647192123
 11
14454.851745455016
 21
38426.107670629623
  0
LINE
  8
_0-0_
  6
CONTINUOUS
 62
    7
 10
14481.359557955011
 20
38166.949467504623
 11
14987.898620455007
 21
38166.949467504623
  0
LINE
  8
_0-0_
  6
CONTINUOUS
 62
    7
 10
14987.898620455007
 20
38140.450444067115
 11
14481.379089205006
 21
38140.450444067115
  0
LINE
  8
_0-0_
  6
CONTINUOUS
 62
    7
 10
14481.359557955011
 20
37854.786381567123
 11
14987.898620455007
 21
37854.786381567123
  0
LINE
  8
_0-0_
  6
CONTINUOUS
 62
    7
 10
14987.898620455007
 20
37828.278569067123
 11
14481.359557955011
 21
37828.278569067123
  0
LINE
  8
_0-0_
  6
CONTINUOUS
 62
    7
 10
14507.851745455013
 20
38452.618412817123
 11
14987.898620455007
 21
38452.618412817123
  0
LINE
  8
_0-0_
  6
CONTINUOUS
 62
    7
 10
15014.406432955013
 20
37589.733647192123
 11
15014.406432955013
 21
38445.541264379623
  0
LINE
  8
_0-0_
  6
CONTINUOUS
 62
    7
 10
14987.898620455007
 20
38452.618412817123
 11
14987.898620455007
 21
37589.733647192123
  0
LINE
  8
_0-0_
  6
CONTINUOUS
 62
    7
 10
14987.898620455007
 20
38479.124272192123
 11
14507.851745455013
 21
38479.124272192123
  0
LINE
  8
_0-0_
  6
CONTINUOUS
 62
    7
 10
11424.523620455011
 20
43247.823490942115
 11
11574.535339205011
 21
43247.823490942115
  0
LINE
  8
_0-0_
  6
CONTINUOUS
 62
    7
 10
10724.531432955007
 20
42947.822514379615
 11
11424.523620455011
 21
42947.822514379615
  0
LINE
  8
_0-0_
  6
CONTINUOUS
 62
    7
 10
10724.531432955007
 20
42947.822514379615
 11
10724.531432955007
 21
42897.822514379615
  0
LINE
  8
_0-0_
  6
CONTINUOUS
 62
    7
 10
10724.531432955007
 20
42897.822514379615
 11
11424.523620455011
 21
42897.822514379615
  0
LINE
  8
_0-0_
  6
CONTINUOUS
 62
    7
 10
10874.039245455015
 20
42897.822514379615
 11
11424.523620455011
 21
42673.783451879623
  0
LINE
  8
_0-0_
  6
CONTINUOUS
 62
    7
 10
11424.523620455011
 20
42619.803959692123
 11
10741.402526705007
 21
42897.822514379615
  0
LINE
  8
_0-0_
  6
CONTINUOUS
 62
    7
 10
11574.535339205011
 20
42547.824467504623
 11
11950.011901705011
 21
42547.824467504623
  0
LINE
  8
_0-0_
  6
CONTINUOUS
 62
    7
 10
11950.011901705011
 20
42547.824467504623
 11
11950.011901705011
 21
42505.883061254623
  0
LINE
  8
_0-0_
  6
CONTINUOUS
 62
    7
 10
11950.011901705011
 20
42505.883061254623
 11
11574.535339205011
 21
42389.860600317123
  0
LINE
  8
_0-0_
  6
CONTINUOUS
 62
    7
 10
11574.535339205011
 20
42542.823490942123
 11
11950.011901705011
 21
42542.823490942123
  0
LINE
  8
_0-0_
  6
CONTINUOUS
 62
    7
 10
11750.808776705015
 20
42547.824467504623
 11
11750.808776705015
 21
42742.744389379615
  0
LINE
  8
_0-0_
  6
CONTINUOUS
 62
    7
 10
11750.808776705015
 20
42742.744389379615
 11
11922.539245455016
 21
42742.744389379615
  0
LINE
  8
_0-0_
  6
CONTINUOUS
 62
    7
 10
11922.539245455016
 20
42742.744389379615
 11
11922.539245455016
 21
42547.824467504623
  0
LINE
  8
_0-0_
  6
CONTINUOUS
 62
    7
 10
19829.472839205013
 20
31847.660649145248
 11
19920.773620455013
 21
31852.869145238998
  0
LINE
  8
_0-0_
  6
CONTINUOUS
 62
    7
 10
19696.945495455013
 20
32162.094731176494
 11
19696.945495455013
 21
32088.491215551501
  0
LINE
  8
_0-0_
  6
CONTINUOUS
 62
    7
 10
19920.773620455013
 20
31249.144535863998
 11
19829.472839205013
 21
31244.695561254623
  0
LINE
  8
_0-0_
  6
CONTINUOUS
 62
    7
 10
19920.773620455013
 20
31852.869145238998
 11
19920.773620455013
 21
31249.144535863998
  0
LINE
  8
_0-0_
  6
CONTINUOUS
 62
    7
 10
19829.472839205013
 20
31847.660649145248
 11
19829.472839205013
 21
31244.695561254623
  0
LINE
  8
_0-0_
  6
CONTINUOUS
 62
    7
 10
19696.945495455013
 20
31840.437748754623
 11
19696.945495455013
 21
31255.058354223373
  0
LINE
  8
_0-0_
  6
CONTINUOUS
 62
    7
 10
18498.340026705009
 20
32096.156987035873
 11
18498.340026705009
 21
32506.664555395248
  0
LINE
  8
_0-0_
  6
CONTINUOUS
 62
    7
 10
18186.164245455009
 20
32235.725346410873
 11
18321.632995455009
 21
32235.725346410873
  0
LINE
  8
_0-0_
  6
CONTINUOUS
 62
    7
 10
18186.164245455009
 20
32297.570561254623
 11
18186.164245455009
 21
32235.725346410873
  0
LINE
  8
_0-0_
  6
CONTINUOUS
 62
    7
 10
18321.632995455009
 20
32297.570561254623
 11
18186.164245455009
 21
32297.570561254623
  0
LINE
  8
_0-0_
  6
CONTINUOUS
 62
    7
 10
18630.855651705009
 20
32297.570561254623
 11
18498.340026705009
 21
32297.570561254623
  0
LINE
  8
_0-0_
  6
CONTINUOUS
 62
    7
 10
18630.855651705009
 20
32235.725346410873
 11
18630.855651705009
 21
32297.570561254623
  0
LINE
  8
_0-0_
  6
CONTINUOUS
 62
    7
 10
18498.340026705009
 20
32235.725346410873
 11
18630.855651705009
 21
32235.725346410873
  0
LINE
  8
_0-0_
  6
CONTINUOUS
 62
    7
 10
18321.632995455009
 20
32506.664555395248
 11
18498.340026705009
 21
32506.664555395248
  0
LINE
  8
_0-0_
  6
CONTINUOUS
 62
    7
 10
18321.632995455009
 20
32086.437504613998
 11
18321.632995455009
 21
32506.664555395248
  0
LINE
  8
_0-0_
  6
CONTINUOUS
 62
    7
 10
18898.855651705013
 20
32073.751225317126
 11
17894.605651705009
 21
32017.792729223373
  0
LINE
  8
_0-0_
  6
CONTINUOUS
 62
    7
 10
18897.324401705013
 20
32114.341313207744
 11
18898.855651705013
 21
32073.751225317126
  0
LINE
  8
_0-0_
  6
CONTINUOUS
 62
    7
 10
17628.316589205009
 20
32951.355961645248
 11
17520.593932955009
 21
32206.272709692123
  0
LINE
  8
_0-0_
  6
CONTINUOUS
 62
    7
 10
17661.957214205009
 20
33184.011235082748
 11
17635.957214205009
 21
33004.208988988998
  0
LINE
  8
_0-0_
  6
CONTINUOUS
 62
    7
 10
17809.207214205013
 20
32951.355961645248
 11
17635.957214205009
 21
33004.208988988998
  0
LINE
  8
_0-0_
  6
CONTINUOUS
 62
    7
 10
17461.699401705013
 20
32427.147221410873
 11
17031.730651705013
 21
32427.147221410873
  0
LINE
  8
_0-0_
  6
CONTINUOUS
 62
    7
 10
17523.535339205009
 20
32854.176518285873
 11
17461.699401705013
 21
32427.147221410873
  0
LINE
  8
_0-0_
  6
CONTINUOUS
 62
    7
 10
17031.730651705013
 20
32854.176518285873
 11
17523.535339205009
 21
32854.176518285873
  0
LINE
  8
_0-0_
  6
CONTINUOUS
 62
    7
 10
17014.058776705009
 20
32871.843754613998
 11
17014.058776705009
 21
32409.479985082748
  0
LINE
  8
_0-0_
  6
CONTINUOUS
 62
    7
 10
17031.730651705013
 20
32854.176518285873
 11
17031.730651705013
 21
32427.147221410873
  0
LINE
  8
_0-0_
  6
CONTINUOUS
 62
    7
 10
17544.156432955013
 20
32871.843754613998
 11
17014.058776705009
 21
32871.843754613998
  0
LINE
  8
_0-0_
  6
CONTINUOUS
 62
    7
 10
17476.422057955009
 20
32409.479985082748
 11
17544.156432955013
 21
32871.843754613998
  0
LINE
  8
_0-0_
  6
CONTINUOUS
 62
    7
 10
17014.058776705009
 20
32409.479985082748
 11
17476.422057955009
 21
32409.479985082748
  0
LINE
  8
_0-0_
  6
CONTINUOUS
 62
    7
 10
17520.593932955009
 20
32206.272709692123
 11
17520.593932955009
 21
31773.351811254623
  0
LINE
  8
_0-0_
  6
CONTINUOUS
 62
    7
 10
17075.894714205013
 20
33360.710697973373
 11
17075.894714205013
 21
33184.011235082748
  0
LINE
  8
_0-0_
  6
CONTINUOUS
 62
    7
 10
16908.031432955013
 20
32871.843754613998
 11
16908.031432955013
 21
31449.408696020248
  0
LINE
  8
_0-0_
  6
CONTINUOUS
 62
    7
 10
17876.929870455009
 20
32061.965824926494
 11
19696.945495455013
 21
32162.094731176494
  0
LINE
  8
_0-0_
  6
CONTINUOUS
 62
    7
 10
20474.527526705013
 20
32758.885014379623
 11
20474.527526705013
 21
34647.820561254623
  0
LINE
  8
_0-0_
  6
CONTINUOUS
 62
    7
 10
18074.523620455013
 20
35047.819584692123
 11
18074.523620455013
 21
35972.821049535873
  0
LINE
  8
_0-0_
  6
CONTINUOUS
 62
    7
 10
19374.527526705013
 20
35047.819584692123
 11
19374.527526705013
 21
35972.821049535873
  0
LINE
  8
_0-0_
  6
CONTINUOUS
 62
    7
 10
20674.523620455013
 20
35047.819584692123
 11
20674.523620455013
 21
35972.821049535873
  0
LINE
  8
_0-0_
  6
CONTINUOUS
 62
    7
 10
21974.531432955009
 20
34647.820561254623
 11
21974.531432955009
 21
35972.821049535873
  0
LINE
  8
_0-0_
  6
CONTINUOUS
 62
    7
 10
21974.531432955009
 20
35047.819584692123
 11
21974.531432955009
 21
34647.820561254623
  0
LINE
  8
_0-0_
  6
CONTINUOUS
 62
    7
 10
20624.525573580009
 20
32758.885014379623
 11
20858.388854830009
 21
32309.363530004623
  0
LINE
  8
_0-0_
  6
CONTINUOUS
 62
    7
 10
18951.859557955013
 20
31213.808842504626
 11
19802.972839205009
 21
31260.928715551494
  0
LINE
  8
_0-0_
  6
CONTINUOUS
 62
    7
 10
19829.472839205013
 20
31244.695561254623
 11
18987.203307955009
 21
31199.083744848373
  0
LINE
  8
_0-0_
  6
CONTINUOUS
 62
    7
 10
19802.972839205009
 20
31260.928715551494
 11
19802.972839205009
 21
31243.261723363998
  0
LINE
  8
_0-0_
  6
CONTINUOUS
 62
    7
 10
19829.472839205013
 20
31847.660649145248
 11
18951.859557955013
 21
31799.862553442119
  0
LINE
  8
_0-0_
  6
CONTINUOUS
 62
    7
 10
18951.859557955013
 20
32047.243168676498
 11
19802.972839205009
 21
32094.363041723376
  0
LINE
  8
_0-0_
  6
CONTINUOUS
 62
    7
 10
19829.472839205013
 20
32078.125981176498
 11
18987.203307955009
 21
32032.517826879623
  0
LINE
  8
_0-0_
  6
CONTINUOUS
 62
    7
 10
18951.859557955013
 20
31799.862553442119
 11
18951.859557955013
 21
32047.243168676498
  0
LINE
  8
_0-0_
  6
CONTINUOUS
 62
    7
 10
18987.203307955009
 20
32032.517826879623
 11
18987.203307955009
 21
31802.809574926498
  0
LINE
  8
_0-0_
  6
CONTINUOUS
 62
    7
 10
19802.972839205009
 20
32094.363041723376
 11
19802.972839205009
 21
32076.695805395248
  0
LINE
  8
_0-0_
  6
CONTINUOUS
 62
    7
 10
22474.529479830013
 20
32147.822270238998
 11
22474.529479830013
 21
33147.823246801498
  0
LINE
  8
_0-0_
  6
CONTINUOUS
 62
    7
 10
22324.523620455013
 20
33147.823246801498
 11
22124.529479830013
 21
32147.822270238998
  0
LINE
  8
_0-0_
  6
CONTINUOUS
 62
    7
 10
18549.527526705013
 20
33997.823490942123
 11
19399.527526705013
 21
33997.823490942123
  0
LINE
  8
_0-0_
  6
CONTINUOUS
 62
    7
 10
19349.527526705013
 20
33947.823490942123
 11
18599.527526705013
 21
33947.823490942123
  0
LINE
  8
_0-0_
  6
CONTINUOUS
 62
    7
 10
18549.527526705013
 20
33247.821049535873
 11
19399.527526705013
 21
33247.821049535873
  0
LINE
  8
_0-0_
  6
CONTINUOUS
 62
    7
 10
18599.527526705013
 20
33297.825932348373
 11
19349.527526705013
 21
33297.825932348373
  0
LINE
  8
_0-0_
  6
CONTINUOUS
 62
    7
 10
18974.527526705013
 20
33947.823490942123
 11
18974.527526705013
 21
33297.825932348373
  0
LINE
  8
_0-0_
  6
CONTINUOUS
 62
    7
 10
18599.527526705013
 20
33947.823490942123
 11
18599.527526705013
 21
33297.825932348373
  0
LINE
  8
_0-0_
  6
CONTINUOUS
 62
    7
 10
18549.527526705013
 20
33247.821049535873
 11
18549.527526705013
 21
33997.823490942123
  0
LINE
  8
_0-0_
  6
CONTINUOUS
 62
    7
 10
19349.527526705013
 20
33297.825932348373
 11
19349.527526705013
 21
33947.823490942123
  0
LINE
  8
_0-0_
  6
CONTINUOUS
 62
    7
 10
19399.527526705013
 20
33247.821049535873
 11
19399.527526705013
 21
33997.823490942123
  0
LINE
  8
_0-0_
  6
CONTINUOUS
 62
    7
 10
17049.527526705013
 20
33997.823490942123
 11
17899.519714205009
 21
33997.823490942123
  0
LINE
  8
_0-0_
  6
CONTINUOUS
 62
    7
 10
17849.527526705013
 20
33947.823490942123
 11
17099.527526705013
 21
33947.823490942123
  0
LINE
  8
_0-0_
  6
CONTINUOUS
 62
    7
 10
17049.527526705013
 20
33247.821049535873
 11
17899.519714205009
 21
33247.821049535873
  0
LINE
  8
_0-0_
  6
CONTINUOUS
 62
    7
 10
17099.527526705013
 20
33297.825932348373
 11
17849.527526705013
 21
33297.825932348373
  0
LINE
  8
_0-0_
  6
CONTINUOUS
 62
    7
 10
17474.527526705013
 20
33947.823490942123
 11
17474.527526705013
 21
33297.825932348373
  0
LINE
  8
_0-0_
  6
CONTINUOUS
 62
    7
 10
17099.527526705013
 20
33947.823490942123
 11
17099.527526705013
 21
33297.825932348373
  0
LINE
  8
_0-0_
  6
CONTINUOUS
 62
    7
 10
17049.527526705013
 20
33247.821049535873
 11
17049.527526705013
 21
33997.823490942123
  0
LINE
  8
_0-0_
  6
CONTINUOUS
 62
    7
 10
17849.527526705013
 20
33297.825932348373
 11
17849.527526705013
 21
33947.823490942123
  0
LINE
  8
_0-0_
  6
CONTINUOUS
 62
    7
 10
17899.519714205009
 20
33247.821049535873
 11
17899.519714205009
 21
33997.823490942123
  0
LINE
  8
_0-0_
  6
CONTINUOUS
 62
    7
 10
22474.529479830013
 20
33147.823246801498
 11
22324.523620455013
 21
33147.823246801498
  0
LINE
  8
_0-0_
  6
CONTINUOUS
 62
    7
 10
55974.532409517509
 20
30647.81995090306
 11
55974.532409517509
 21
32747.824223363994
  0
LINE
  8
_0-0_
  6
CONTINUOUS
 62
    7
 10
52974.527526705016
 20
29147.822514379623
 11
55974.532409517509
 21
30647.81995090306
  0
LINE
  8
_0-0_
  6
CONTINUOUS
 62
    7
 10
46274.530456392509
 20
32747.824223363994
 11
55974.532409517509
 21
32747.824223363994
  0
LINE
  8
_0-0_
  6
CONTINUOUS
 62
    7
 10
45474.537780611266
 20
32202.142826879623
 11
45474.537780611266
 21
33147.823246801498
  0
LINE
  8
_0-0_
  6
CONTINUOUS
 62
    7
 10
45624.530944673759
 20
33147.823246801498
 11
45788.370788423766
 21
32328.577153051498
  0
LINE
  8
_0-0_
  6
CONTINUOUS
 62
    7
 10
45474.537780611266
 20
33147.823246801498
 11
45624.530944673759
 21
33147.823246801498
  0
LINE
  8
_0-0_
  6
CONTINUOUS
 62
    7
 10
52349.534179537048
 20
32597.823735082751
 11
53399.525207369072
 21
32597.823735082751
  0
LINE
  8
_0-0_
  6
CONTINUOUS
 62
    7
 10
53399.525207369072
 20
32247.825199926494
 11
52349.534179537048
 21
32247.825199926494
  0
LINE
  8
_0-0_
  6
CONTINUOUS
 62
    7
 10
51824.536193697204
 20
34117.822026098373
 11
49124.527282564384
 21
34117.822026098373
  0
LINE
  8
_0-0_
  6
CONTINUOUS
 62
    7
 10
49124.527282564384
 20
33847.825444067123
 11
51824.536193697204
 21
33847.825444067123
  0
LINE
  8
_0-0_
  6
CONTINUOUS
 62
    7
 10
51924.526550142516
 20
33347.823979223373
 11
49024.522155611259
 21
33347.823979223373
  0
LINE
  8
_0-0_
  6
CONTINUOUS
 62
    7
 10
49124.527282564384
 20
34147.823979223373
 11
49124.527282564384
 21
33847.825444067123
  0
LINE
  8
_0-0_
  6
CONTINUOUS
 62
    7
 10
49224.527770845634
 20
33347.823979223373
 11
49224.527770845634
 21
33847.825444067123
  0
LINE
  8
_0-0_
  6
CONTINUOUS
 62
    7
 10
51824.536193697204
 20
33847.825444067123
 11
51824.536193697204
 21
34147.823979223373
  0
LINE
  8
_0-0_
  6
CONTINUOUS
 62
    7
 10
51724.520934908141
 20
33347.823979223373
 11
51724.520934908141
 21
33847.825444067123
  0
LINE
  8
_0-0_
  6
CONTINUOUS
 62
    7
 10
48874.524108736259
 20
32747.824223363994
 11
49024.522155611259
 21
33347.823979223373
  0
LINE
  8
_0-0_
  6
CONTINUOUS
 62
    7
 10
49091.746520845641
 20
32747.824223363994
 11
49224.527770845634
 21
33347.823979223373
  0
LINE
  8
_0-0_
  6
CONTINUOUS
 62
    7
 10
49391.985046236259
 20
32747.824223363994
 11
49391.985046236259
 21
33347.823979223373
  0
LINE
  8
_0-0_
  6
CONTINUOUS
 62
    7
 10
49674.521667330009
 20
32747.824223363994
 11
49749.520690767509
 21
33347.823979223373
  0
LINE
  8
_0-0_
  6
CONTINUOUS
 62
    7
 10
49849.521179048759
 20
32747.824223363994
 11
49849.521179048759
 21
33347.823979223373
  0
LINE
  8
_0-0_
  6
CONTINUOUS
 62
    7
 10
50474.534118501891
 20
32747.824223363994
 11
50474.534118501891
 21
33347.823979223373
  0
LINE
  8
_0-0_
  6
CONTINUOUS
 62
    7
 10
51099.527648775322
 20
32747.824223363994
 11
51099.527648775322
 21
33347.823979223373
  0
LINE
  8
_0-0_
  6
CONTINUOUS
 62
    7
 10
51199.527892915947
 20
33347.823979223373
 11
51274.526916353439
 21
32747.824223363994
  0
LINE
  8
_0-0_
  6
CONTINUOUS
 62
    7
 10
51557.068542330009
 20
32747.824223363994
 11
51557.068542330009
 21
33347.823979223373
  0
LINE
  8
_0-0_
  6
CONTINUOUS
 62
    7
 10
51724.520934908141
 20
33347.823979223373
 11
51857.292297212829
 21
32747.824223363994
  0
LINE
  8
_0-0_
  6
CONTINUOUS
 62
    7
 10
51924.526550142516
 20
33347.823979223373
 11
52074.524597017509
 21
32747.824223363994
  0
LINE
  8
_0-0_
  6
CONTINUOUS
 62
    7
 10
8974.523620455011
 20
32758.885014379623
 11
8974.523620455011
 21
30129.333378637431
  0
LINE
  8
_0-0_
  6
CONTINUOUS
 62
    7
 10
12874.527526705015
 20
35972.821049535873
 11
12874.527526705015
 21
35047.819584692123
  0
LINE
  8
_0-0_
  6
CONTINUOUS
 62
    7
 10
15049.738464205006
 20
39365.567631567123
 11
15049.738464205006
 21
37589.733647192123
  0
LINE
  8
_0-0_
  6
CONTINUOUS
 62
    7
 10
9974.5392454550147
 20
25134.465092504623
 11
54474.532409517509
 21
25134.465092504623
  0
LINE
  8
_0-0_
  6
CONTINUOUS
 62
    7
 10
9974.5392454550147
 20
7134.4689987546217
 11
54474.532409517509
 21
7134.4689987546217
  0
LINE
  8
_0-0_
  6
CONTINUOUS
 62
    7
 10
6324.5431517050065
 20
17884.464115942119
 11
6324.5431517050065
 21
14384.467045629621
  0
LINE
  8
_0-0_
  6
CONTINUOUS
 62
    7
 10
22574.539245455013
 20
23634.465092504623
 11
22574.539245455013
 21
8634.4670456296208
  0
LINE
  8
_0-0_
  6
CONTINUOUS
 62
    7
 10
22374.541198580013
 20
23634.465092504623
 11
22374.541198580013
 21
8634.4670456296208
  0
LINE
  8
_0-0_
  6
CONTINUOUS
 62
    7
 10
22174.545104830013
 20
23634.465092504623
 11
22174.545104830013
 21
8634.4670456296208
  0
LINE
  8
_0-0_
  6
CONTINUOUS
 62
    7
 10
22574.539245455013
 20
23634.465092504623
 11
22174.545104830013
 21
23634.465092504623
  0
LINE
  8
_0-0_
  6
CONTINUOUS
 62
    7
 10
22574.539245455013
 20
8634.4670456296208
 11
22174.545104830013
 21
8634.4670456296208
  0
LINE
  8
_0-0_
  6
CONTINUOUS
 62
    7
 10
22174.545104830013
 20
24434.462651098373
 11
22174.545104830013
 21
7834.4709518796208
  0
LINE
  8
_0-0_
  6
CONTINUOUS
 62
    7
 10
19924.543151705009
 20
15103.552006567119
 11
19924.543151705009
 21
17165.379155004623
  0
LINE
  8
_0-0_
  6
CONTINUOUS
 62
    7
 10
20174.543151705009
 20
14334.464115942121
 11
20174.543151705009
 21
17934.466069067123
  0
LINE
  8
_0-0_
  6
CONTINUOUS
 62
    7
 10
10174.543151705006
 20
7634.4689987546217
 11
21974.541198580013
 21
7634.4689987546217
  0
LINE
  8
_0-0_
  6
CONTINUOUS
 62
    7
 10
9874.5470579550092
 20
13199.463139379619
 11
18674.543151705009
 21
13199.463139379619
  0
LINE
  8
_0-0_
  6
CONTINUOUS
 62
    7
 10
14498.371276705006
 20
13199.463139379619
 11
18674.543151705009
 21
13199.463139379619
  0
LINE
  8
_0-0_
  6
CONTINUOUS
 62
    7
 10
14498.371276705006
 20
13384.464115942121
 11
17780.187682955013
 21
13384.464115942121
  0
LINE
  8
_0-0_
  6
CONTINUOUS
 62
    7
 10
10024.543151705006
 20
7284.4709518796208
 11
21374.541198580013
 21
7284.4709518796208
  0
LINE
  8
_0-0_
  6
CONTINUOUS
 62
    7
 10
10074.547057955009
 20
7434.4689987546217
 11
21374.541198580013
 21
7434.4689987546217
  0
LINE
  8
_0-0_
  6
CONTINUOUS
 62
    7
 10
7324.5392454550147
 20
13384.464115942121
 11
12898.367370455015
 21
13384.464115942121
  0
LINE
  8
_0-0_
  6
CONTINUOUS
 62
    7
 10
9474.5431517050056
 20
8334.4670456296208
 11
7608.9572142050092
 21
8334.4670456296208
  0
LINE
  8
_0-0_
  6
CONTINUOUS
 62
    7
 10
9674.5392454550147
 20
8134.4709518796208
 11
9674.5392454550147
 21
12999.467045629621
  0
LINE
  8
_0-0_
  6
CONTINUOUS
 62
    7
 10
8974.5431517050056
 20
8134.4709518796208
 11
8974.5431517050056
 21
12699.467045629621
  0
LINE
  8
_0-0_
  6
CONTINUOUS
 62
    7
 10
9124.5470579550092
 20
12349.467045629621
 11
9124.5470579550092
 21
8184.4689987546217
  0
LINE
  8
_0-0_
  6
CONTINUOUS
 62
    7
 10
9274.5431517050056
 20
12661.717045629621
 11
9274.5431517050056
 21
8234.4689987546226
  0
LINE
  8
_0-0_
  6
CONTINUOUS
 62
    7
 10
8024.5431517050065
 20
7934.4709518796208
 11
9474.5431517050056
 21
7934.4709518796208
  0
LINE
  8
_0-0_
  6
CONTINUOUS
 62
    7
 10
8024.5431517050065
 20
8834.4689987546226
 11
8924.5392454550147
 21
8984.4650925046208
  0
LINE
  8
_0-0_
  6
CONTINUOUS
 62
    7
 10
8024.5431517050065
 20
7834.4709518796208
 11
8924.5392454550147
 21
7684.4670456296199
  0
LINE
  8
_0-0_
  6
CONTINUOUS
 62
    7
 10
8144.5470579550147
 20
7984.4689987546217
 11
8144.5470579550147
 21
8684.4709518796208
  0
LINE
  8
_0-0_
  6
CONTINUOUS
 62
    7
 10
8144.5470579550147
 20
8534.4670456296208
 11
8704.5431517050129
 21
8534.4670456296208
  0
LINE
  8
_0-0_
  6
CONTINUOUS
 62
    7
 10
8144.5470579550147
 20
8134.4709518796208
 11
8704.5431517050129
 21
8134.4709518796208
  0
LINE
  8
_0-0_
  6
CONTINUOUS
 62
    7
 10
8704.5431517050129
 20
7984.4689987546217
 11
8704.5431517050129
 21
8684.4709518796208
  0
LINE
  8
_0-0_
  6
CONTINUOUS
 62
    7
 10
8024.5431517050065
 20
8734.4689987546226
 11
8024.5431517050065
 21
8834.4689987546226
  0
LINE
  8
_0-0_
  6
CONTINUOUS
 62
    7
 10
8024.5431517050065
 20
7834.4709518796208
 11
8024.5431517050065
 21
7934.4709518796208
  0
LINE
  8
_0-0_
  6
CONTINUOUS
 62
    7
 10
8024.5431517050065
 20
7984.4689987546217
 11
8024.5431517050065
 21
8684.4709518796208
  0
LINE
  8
_0-0_
  6
CONTINUOUS
 62
    7
 10
8924.5392454550147
 20
8984.4650925046208
 11
8974.5431517050056
 21
8984.4650925046208
  0
LINE
  8
_0-0_
  6
CONTINUOUS
 62
    7
 10
8924.5392454550147
 20
7684.4670456296199
 11
8974.5431517050056
 21
7684.4670456296199
  0
LINE
  8
_0-0_
  6
CONTINUOUS
 62
    7
 10
9474.5431517050056
 20
7934.4709518796208
 11
9474.5431517050056
 21
8734.4689987546226
  0
LINE
  8
_0-0_
  6
CONTINUOUS
 62
    7
 10
8024.5431517050065
 20
8734.4689987546226
 11
9474.5431517050056
 21
8734.4689987546226
  0
LINE
  8
_0-0_
  6
CONTINUOUS
 62
    7
 10
8924.5392454550147
 20
7984.4689987546217
 11
8924.5392454550147
 21
8684.4709518796208
  0
LINE
  8
_0-0_
  6
CONTINUOUS
 62
    7
 10
8024.5431517050065
 20
7984.4689987546217
 11
8924.5392454550147
 21
7984.4689987546217
  0
LINE
  8
_0-0_
  6
CONTINUOUS
 62
    7
 10
8024.5431517050065
 20
8684.4709518796208
 11
8924.5392454550147
 21
8684.4709518796208
  0
LINE
  8
_0-0_
  6
CONTINUOUS
 62
    7
 10
8974.5431517050056
 20
8334.4670456296208
 11
8974.5431517050056
 21
8984.4650925046208
  0
LINE
  8
_0-0_
  6
CONTINUOUS
 62
    7
 10
8974.5431517050056
 20
7684.4670456296199
 11
9084.691589205011
 21
7684.4670456296199
  0
LINE
  8
_0-0_
  6
CONTINUOUS
 62
    7
 10
9474.5431517050056
 20
13199.463139379619
 11
12898.367370455015
 21
13199.463139379619
  0
LINE
  8
_0-0_
  6
CONTINUOUS
 62
    7
 10
14498.371276705006
 20
13199.463139379619
 11
12898.367370455015
 21
13199.463139379619
  0
LINE
  8
_0-0_
  6
CONTINUOUS
 62
    7
 10
14498.371276705006
 20
13384.464115942121
 11
12898.367370455015
 21
13384.464115942121
  0
LINE
  8
_0-0_
  6
CONTINUOUS
 62
    7
 10
9524.5470579550092
 20
12749.463139379619
 11
9674.5392454550147
 21
12749.463139379619
  0
LINE
  8
_0-0_
  6
CONTINUOUS
 62
    7
 10
21374.541198580013
 20
7434.4689987546217
 11
21374.541198580013
 21
7134.4689987546217
  0
LINE
  8
_0-0_
  6
CONTINUOUS
 62
    7
 10
18674.543151705009
 20
13199.463139379619
 11
20174.543151705009
 21
14334.464115942121
  0
LINE
  8
_0-0_
  6
CONTINUOUS
 62
    7
 10
23824.539245455013
 20
7484.4670456296199
 11
24124.539245455013
 21
7484.4670456296199
  0
LINE
  8
_0-0_
  6
CONTINUOUS
 62
    7
 10
22899.543151705009
 20
7709.4689987546217
 11
24199.543151705009
 21
7709.4689987546217
  0
LINE
  8
_0-0_
  6
CONTINUOUS
 62
    7
 10
22899.543151705009
 20
7259.4689987546217
 11
24199.543151705009
 21
7259.4689987546217
  0
LINE
  8
_0-0_
  6
CONTINUOUS
 62
    7
 10
23124.541198580013
 20
7634.4689987546217
 11
23124.541198580013
 21
7334.4689987546217
  0
LINE
  8
_0-0_
  6
CONTINUOUS
 62
    7
 10
23974.541198580013
 20
7334.4689987546217
 11
23974.541198580013
 21
7634.4689987546217
  0
LINE
  8
_0-0_
  6
CONTINUOUS
 62
    7
 10
22974.543151705009
 20
7484.4670456296199
 11
23274.541198580013
 21
7484.4670456296199
  0
LINE
  8
_0-0_
  6
CONTINUOUS
 62
    7
 10
22899.543151705009
 20
7709.4689987546217
 11
22899.543151705009
 21
7259.4689987546217
  0
LINE
  8
_0-0_
  6
CONTINUOUS
 62
    7
 10
24199.543151705009
 20
7259.4689987546217
 11
24199.543151705009
 21
7709.4689987546217
  0
LINE
  8
_0-0_
  6
CONTINUOUS
 62
    7
 10
10174.543151705006
 20
24634.468510473373
 11
21974.541198580013
 21
24634.468510473373
  0
LINE
  8
_0-0_
  6
CONTINUOUS
 62
    7
 10
9874.5470579550092
 20
19069.463139379623
 11
18674.543151705009
 21
19069.463139379623
  0
LINE
  8
_0-0_
  6
CONTINUOUS
 62
    7
 10
14498.371276705006
 20
19069.463139379623
 11
18674.543151705009
 21
19069.463139379623
  0
LINE
  8
_0-0_
  6
CONTINUOUS
 62
    7
 10
14845.621276705015
 20
18884.467045629623
 11
17796.172057955013
 21
18884.467045629623
  0
LINE
  8
_0-0_
  6
CONTINUOUS
 62
    7
 10
10024.543151705006
 20
24984.462162817123
 11
21374.541198580013
 21
24984.462162817123
  0
LINE
  8
_0-0_
  6
CONTINUOUS
 62
    7
 10
10074.547057955009
 20
24834.464115942123
 11
21374.541198580013
 21
24834.464115942123
  0
LINE
  8
_0-0_
  6
CONTINUOUS
 62
    7
 10
7324.5392454550147
 20
18884.467045629623
 11
12898.367370455015
 21
18884.467045629623
  0
LINE
  8
_0-0_
  6
CONTINUOUS
 62
    7
 10
8024.5431517050065
 20
22834.467533910873
 11
9474.5431517050056
 21
22834.467533910873
  0
LINE
  8
_0-0_
  6
CONTINUOUS
 62
    7
 10
8024.5431517050065
 20
23734.465580785873
 11
8924.5392454550147
 21
23884.463627660873
  0
LINE
  8
_0-0_
  6
CONTINUOUS
 62
    7
 10
8024.5431517050065
 20
22734.467045629623
 11
8924.5392454550147
 21
22584.464115942119
  0
LINE
  8
_0-0_
  6
CONTINUOUS
 62
    7
 10
8144.5470579550147
 20
22884.465092504623
 11
8144.5470579550147
 21
23584.467533910873
  0
LINE
  8
_0-0_
  6
CONTINUOUS
 62
    7
 10
8144.5470579550147
 20
23434.469487035873
 11
8704.5431517050129
 21
23434.469487035873
  0
LINE
  8
_0-0_
  6
CONTINUOUS
 62
    7
 10
8144.5470579550147
 20
23034.463139379623
 11
8704.5431517050129
 21
23034.463139379623
  0
LINE
  8
_0-0_
  6
CONTINUOUS
 62
    7
 10
8704.5431517050129
 20
22884.465092504623
 11
8704.5431517050129
 21
23584.467533910873
  0
LINE
  8
_0-0_
  6
CONTINUOUS
 62
    7
 10
8024.5431517050065
 20
23634.465092504623
 11
8024.5431517050065
 21
23734.465580785873
  0
LINE
  8
_0-0_
  6
CONTINUOUS
 62
    7
 10
8024.5431517050065
 20
22734.467045629623
 11
8024.5431517050065
 21
22834.467533910873
  0
LINE
  8
_0-0_
  6
CONTINUOUS
 62
    7
 10
8024.5431517050065
 20
22884.465092504623
 11
8024.5431517050065
 21
23584.467533910873
  0
LINE
  8
_0-0_
  6
CONTINUOUS
 62
    7
 10
8924.5392454550147
 20
23884.463627660873
 11
8974.5431517050056
 21
23884.463627660873
  0
LINE
  8
_0-0_
  6
CONTINUOUS
 62
    7
 10
8924.5392454550147
 20
22584.464115942119
 11
8974.5431517050056
 21
22584.464115942119
  0
LINE
  8
_0-0_
  6
CONTINUOUS
 62
    7
 10
9474.5431517050056
 20
22834.467533910873
 11
9474.5431517050056
 21
23634.465092504623
  0
LINE
  8
_0-0_
  6
CONTINUOUS
 62
    7
 10
8024.5431517050065
 20
23634.465092504623
 11
9474.5431517050056
 21
23634.465092504623
  0
LINE
  8
_0-0_
  6
CONTINUOUS
 62
    7
 10
8974.5431517050056
 20
22589.165776098373
 11
8974.5431517050056
 21
23884.463627660873
  0
LINE
  8
_0-0_
  6
CONTINUOUS
 62
    7
 10
8924.5392454550147
 20
22884.465092504623
 11
8924.5392454550147
 21
23584.467533910873
  0
LINE
  8
_0-0_
  6
CONTINUOUS
 62
    7
 10
8024.5431517050065
 20
22884.465092504623
 11
8924.5392454550147
 21
22884.465092504623
  0
LINE
  8
_0-0_
  6
CONTINUOUS
 62
    7
 10
8024.5431517050065
 20
23584.467533910873
 11
8924.5392454550147
 21
23584.467533910873
  0
LINE
  8
_0-0_
  6
CONTINUOUS
 62
    7
 10
9474.5431517050056
 20
23234.463627660873
 11
7608.9572142050092
 21
23234.463627660873
  0
LINE
  8
_0-0_
  6
CONTINUOUS
 62
    7
 10
9674.5392454550147
 20
24134.466557348373
 11
9674.5392454550147
 21
19269.463139379623
  0
LINE
  8
_0-0_
  6
CONTINUOUS
 62
    7
 10
8974.5431517050056
 20
24134.466557348373
 11
8974.5431517050056
 21
19569.464115942123
  0
LINE
  8
_0-0_
  6
CONTINUOUS
 62
    7
 10
9274.5431517050056
 20
19607.218998754623
 11
9274.5431517050056
 21
22834.467533910873
  0
LINE
  8
_0-0_
  6
CONTINUOUS
 62
    7
 10
9124.5470579550092
 20
19919.463139379623
 11
9124.5470579550092
 21
22834.467533910873
  0
LINE
  8
_0-0_
  6
CONTINUOUS
 62
    7
 10
9474.5431517050056
 20
19069.463139379623
 11
12898.367370455015
 21
19069.463139379623
  0
LINE
  8
_0-0_
  6
CONTINUOUS
 62
    7
 10
14845.621276705015
 20
18884.467045629623
 11
12898.367370455015
 21
18884.467045629623
  0
LINE
  8
_0-0_
  6
CONTINUOUS
 62
    7
 10
14498.371276705006
 20
19069.463139379623
 11
12898.367370455015
 21
19069.463139379623
  0
LINE
  8
_0-0_
  6
CONTINUOUS
 62
    7
 10
9524.5470579550092
 20
19519.467045629623
 11
9674.5392454550147
 21
19519.467045629623
  0
LINE
  8
_0-0_
  6
CONTINUOUS
 62
    7
 10
9274.5431517050056
 20
23634.465092504623
 11
9274.5431517050056
 21
24034.466557348373
  0
LINE
  8
_0-0_
  6
CONTINUOUS
 62
    7
 10
9124.5470579550092
 20
23634.465092504623
 11
9124.5470579550092
 21
24084.468998754623
  0
LINE
  8
_0-0_
  6
CONTINUOUS
 62
    7
 10
18674.543151705009
 20
19069.463139379623
 11
20174.543151705009
 21
17934.466069067123
  0
LINE
  8
_0-0_
  6
CONTINUOUS
 62
    7
 10
21374.541198580013
 20
24834.464115942123
 11
21374.541198580013
 21
25134.465092504623
  0
LINE
  8
_0-0_
  6
CONTINUOUS
 62
    7
 10
23824.539245455013
 20
24784.466557348373
 11
24124.539245455013
 21
24784.466557348373
  0
LINE
  8
_0-0_
  6
CONTINUOUS
 62
    7
 10
22899.543151705009
 20
24559.469487035873
 11
24199.543151705009
 21
24559.469487035873
  0
LINE
  8
_0-0_
  6
CONTINUOUS
 62
    7
 10
22899.543151705009
 20
25009.463627660873
 11
24199.543151705009
 21
25009.463627660873
  0
LINE
  8
_0-0_
  6
CONTINUOUS
 62
    7
 10
23124.541198580013
 20
24634.468510473373
 11
23124.541198580013
 21
24934.464604223369
  0
LINE
  8
_0-0_
  6
CONTINUOUS
 62
    7
 10
23974.541198580013
 20
24934.464604223369
 11
23974.541198580013
 21
24634.468510473373
  0
LINE
  8
_0-0_
  6
CONTINUOUS
 62
    7
 10
22974.543151705009
 20
24784.466557348373
 11
23274.541198580013
 21
24784.466557348373
  0
LINE
  8
_0-0_
  6
CONTINUOUS
 62
    7
 10
22899.543151705009
 20
24559.469487035873
 11
22899.543151705009
 21
25009.463627660873
  0
LINE
  8
_0-0_
  6
CONTINUOUS
 62
    7
 10
24199.543151705009
 20
25009.463627660873
 11
24199.543151705009
 21
24559.469487035873
  0
LINE
  8
_0-0_
  6
CONTINUOUS
 62
    7
 10
45574.538268892516
 20
8634.4670456296208
 11
45574.538268892516
 21
23634.465092504623
  0
LINE
  8
_0-0_
  6
CONTINUOUS
 62
    7
 10
45774.538757173766
 20
8634.4670456296208
 11
45774.538757173766
 21
23634.465092504623
  0
LINE
  8
_0-0_
  6
CONTINUOUS
 62
    7
 10
45974.539245455016
 20
8634.4670456296208
 11
45974.539245455016
 21
23634.465092504623
  0
LINE
  8
_0-0_
  6
CONTINUOUS
 62
    7
 10
45574.538268892516
 20
8634.4670456296208
 11
45974.539245455016
 21
8634.4670456296208
  0
LINE
  8
_0-0_
  6
CONTINUOUS
 62
    7
 10
45574.538268892516
 20
23634.465092504623
 11
45974.539245455016
 21
23634.465092504623
  0
LINE
  8
_0-0_
  6
CONTINUOUS
 62
    7
 10
45574.538268892516
 20
8634.4670456296208
 11
45574.538268892516
 21
23634.465092504623
  0
LINE
  8
_0-0_
  6
CONTINUOUS
 62
    7
 10
45774.538757173766
 20
8634.4670456296208
 11
45774.538757173766
 21
23634.465092504623
  0
LINE
  8
_0-0_
  6
CONTINUOUS
 62
    7
 10
45974.539245455016
 20
8634.4670456296208
 11
45974.539245455016
 21
23634.465092504623
  0
LINE
  8
_0-0_
  6
CONTINUOUS
 62
    7
 10
45574.538268892516
 20
8634.4670456296208
 11
45974.539245455016
 21
8634.4670456296208
  0
LINE
  8
_0-0_
  6
CONTINUOUS
 62
    7
 10
45574.538268892516
 20
23634.465092504623
 11
45974.539245455016
 21
23634.465092504623
  0
LINE
  8
_0-0_
  6
CONTINUOUS
 62
    7
 10
55674.536315767509
 20
16134.465092504621
 11
55674.536315767509
 21
9559.4650925046208
  0
LINE
  8
_0-0_
  6
CONTINUOUS
 62
    7
 10
55824.534362642509
 20
9559.4650925046208
 11
55824.534362642509
 21
16134.465092504621
  0
LINE
  8
_0-0_
  6
CONTINUOUS
 62
    7
 10
55974.532409517509
 20
9559.4650925046208
 11
55974.532409517509
 21
22709.466069067123
  0
LINE
  8
_0-0_
  6
CONTINUOUS
 62
    7
 10
44824.548034517509
 20
7484.4670456296199
 11
45124.539245455016
 21
7484.4670456296199
  0
LINE
  8
_0-0_
  6
CONTINUOUS
 62
    7
 10
43899.544128267516
 20
7709.4689987546217
 11
45199.538268892516
 21
7709.4689987546217
  0
LINE
  8
_0-0_
  6
CONTINUOUS
 62
    7
 10
43899.544128267516
 20
7259.4689987546217
 11
45199.538268892516
 21
7259.4689987546217
  0
LINE
  8
_0-0_
  6
CONTINUOUS
 62
    7
 10
44124.535339205009
 20
7634.4689987546217
 11
44124.535339205009
 21
7334.4689987546217
  0
LINE
  8
_0-0_
  6
CONTINUOUS
 62
    7
 10
44974.541198580009
 20
7334.4689987546217
 11
44974.541198580009
 21
7634.4689987546217
  0
LINE
  8
_0-0_
  6
CONTINUOUS
 62
    7
 10
43974.543151705009
 20
7484.4670456296199
 11
44274.539245455016
 21
7484.4670456296199
  0
LINE
  8
_0-0_
  6
CONTINUOUS
 62
    7
 10
43899.544128267516
 20
7709.4689987546217
 11
43899.544128267516
 21
7259.4689987546217
  0
LINE
  8
_0-0_
  6
CONTINUOUS
 62
    7
 10
45199.538268892516
 20
7259.4689987546217
 11
45199.538268892516
 21
7709.4689987546217
  0
LINE
  8
_0-0_
  6
CONTINUOUS
 62
    7
 10
45245.977722017509
 20
7284.4709518796208
 11
54424.539611665954
 21
7284.4709518796208
  0
LINE
  8
_0-0_
  6
CONTINUOUS
 62
    7
 10
52374.535461275322
 20
7384.4709518796208
 11
52674.536437837822
 21
7384.4709518796208
  0
LINE
  8
_0-0_
  6
CONTINUOUS
 62
    7
 10
52241.694946138603
 20
7684.4533737546217
 11
53507.379272310485
 21
7684.4533737546217
  0
LINE
  8
_0-0_
  6
CONTINUOUS
 62
    7
 10
52241.694946138603
 20
7684.4533737546217
 11
52241.694946138603
 21
7284.4709518796208
  0
LINE
  8
_0-0_
  6
CONTINUOUS
 62
    7
 10
52524.533477632744
 20
7534.4689987546217
 11
52524.533477632744
 21
7434.4689987546217
  0
LINE
  8
_0-0_
  6
CONTINUOUS
 62
    7
 10
53224.535766451103
 20
7534.4689987546217
 11
53224.535766451103
 21
7434.4689987546217
  0
LINE
  8
_0-0_
  6
CONTINUOUS
 62
    7
 10
53074.53279861663
 20
7384.4709518796208
 11
53374.533782808518
 21
7384.4709518796208
  0
LINE
  8
_0-0_
  6
CONTINUOUS
 62
    7
 10
53507.379272310485
 20
7684.4533737546217
 11
53507.379272310485
 21
7284.4709518796208
  0
LINE
  8
_0-0_
  6
CONTINUOUS
 62
    7
 10
52524.533477632744
 20
7434.4689987546217
 11
52524.533477632744
 21
7284.4709518796208
  0
LINE
  8
_0-0_
  6
CONTINUOUS
 62
    7
 10
53224.535766451103
 20
7434.4689987546217
 11
53224.535766451103
 21
7284.4709518796208
  0
LINE
  8
_0-0_
  6
CONTINUOUS
 62
    7
 10
45245.977722017509
 20
7434.4689987546217
 11
45245.977722017509
 21
7134.4689987546217
  0
LINE
  8
_0-0_
  6
CONTINUOUS
 62
    7
 10
46269.141296236259
 20
7434.4689987546217
 11
46269.141296236259
 21
7134.4689987546217
  0
LINE
  8
_0-0_
  6
CONTINUOUS
 62
    7
 10
45245.977722017509
 20
7434.4689987546217
 11
45245.977722017509
 21
7134.4689987546217
  0
LINE
  8
_0-0_
  6
CONTINUOUS
 62
    7
 10
45245.977722017509
 20
7434.4689987546217
 11
52241.694946138603
 21
7434.4689987546217
  0
LINE
  8
_0-0_
  6
CONTINUOUS
 62
    7
 10
53924.533080904235
 20
7884.4689987546217
 11
54774.533386080009
 21
7884.4689987546217
  0
LINE
  8
_0-0_
  6
CONTINUOUS
 62
    7
 10
55024.536559908141
 20
7634.4689987546217
 11
55024.536559908141
 21
7608.6369675046199
  0
LINE
  8
_0-0_
  6
CONTINUOUS
 62
    7
 10
53674.539733736266
 20
7634.4689987546217
 11
53674.539733736266
 21
7434.4689987546217
  0
LINE
  8
_0-0_
  6
CONTINUOUS
 62
    7
 10
53924.533080904235
 20
7784.4709518796208
 11
53924.533080904235
 21
7484.4670456296199
  0
LINE
  8
_0-0_
  6
CONTINUOUS
 62
    7
 10
54774.533386080009
 20
7484.4670456296199
 11
54774.533386080009
 21
7784.4709518796208
  0
LINE
  8
_0-0_
  6
CONTINUOUS
 62
    7
 10
53774.535095064391
 20
7634.4689987546217
 11
54074.536071626877
 21
7634.4689987546217
  0
LINE
  8
_0-0_
  6
CONTINUOUS
 62
    7
 10
54624.535339205009
 20
7634.4689987546217
 11
54924.536315767509
 21
7634.4689987546217
  0
LINE
  8
_0-0_
  6
CONTINUOUS
 62
    7
 10
53507.379272310485
 20
7434.4689987546217
 11
53674.539733736266
 21
7434.4689987546217
  0
LINE
  8
_0-0_
  6
CONTINUOUS
 62
    7
 10
55674.536315767509
 20
8954.189701879619
 11
55824.534362642509
 21
8954.189701879619
  0
LINE
  8
_0-0_
  6
CONTINUOUS
 62
    7
 10
55824.534362642509
 20
8784.4689987546226
 11
55974.532409517509
 21
8784.4689987546226
  0
LINE
  8
_0-0_
  6
CONTINUOUS
 62
    7
 10
55674.536315767509
 20
9359.4650925046208
 11
55824.534362642509
 21
9359.4650925046208
  0
LINE
  8
_0-0_
  6
CONTINUOUS
 62
    7
 10
55824.534362642509
 20
9484.4650925046208
 11
55974.532409517509
 21
9484.4650925046208
  0
LINE
  8
_0-0_
  6
CONTINUOUS
 62
    7
 10
55674.536315767509
 20
9559.4650925046208
 11
55974.532409517509
 21
9559.4650925046208
  0
LINE
  8
_0-0_
  6
CONTINUOUS
 62
    7
 10
55674.536315767509
 20
8709.4689987546226
 11
55974.532409517509
 21
8709.4689987546226
  0
LINE
  8
_0-0_
  6
CONTINUOUS
 62
    7
 10
55674.536315767509
 20
8954.189701879619
 11
55674.536315767509
 21
9359.4650925046208
  0
LINE
  8
_0-0_
  6
CONTINUOUS
 62
    7
 10
55974.532409517509
 20
9484.4650925046208
 11
55974.532409517509
 21
8784.4689987546226
  0
LINE
  8
_0-0_
  6
CONTINUOUS
 62
    7
 10
55824.534362642509
 20
8684.4709518796208
 11
55824.534362642509
 21
8709.4689987546226
  0
LINE
  8
_0-0_
  6
CONTINUOUS
 62
    7
 10
55824.534362642509
 20
8784.4689987546226
 11
55824.534362642509
 21
9484.4650925046208
  0
LINE
  8
_0-0_
  6
CONTINUOUS
 62
    7
 10
56429.460388033134
 20
9134.4689987546226
 11
55084.526061861266
 21
9134.4689987546226
  0
LINE
  8
_0-0_
  6
CONTINUOUS
 62
    7
 10
55674.536315767509
 20
9359.4650925046208
 11
55674.536315767509
 21
8954.189701879619
  0
LINE
  8
_0-0_
  6
CONTINUOUS
 62
    7
 10
55824.534362642509
 20
8684.4709518796208
 11
55824.534362642509
 21
8709.4689987546226
  0
LINE
  8
_0-0_
  6
CONTINUOUS
 62
    7
 10
55824.534362642509
 20
8784.4689987546226
 11
55824.534362642509
 21
9484.4650925046208
  0
LINE
  8
_0-0_
  6
CONTINUOUS
 62
    7
 10
55974.532409517509
 20
8634.4670456296208
 11
55974.532409517509
 21
8709.4689987546226
  0
LINE
  8
_0-0_
  6
CONTINUOUS
 62
    7
 10
55974.532409517509
 20
8784.4689987546226
 11
55974.532409517509
 21
9484.4650925046208
  0
LINE
  8
_0-0_
  6
CONTINUOUS
 62
    7
 10
44824.548034517509
 20
24784.466557348373
 11
45124.539245455016
 21
24784.466557348373
  0
LINE
  8
_0-0_
  6
CONTINUOUS
 62
    7
 10
43899.544128267516
 20
24559.469487035873
 11
45199.538268892516
 21
24559.469487035873
  0
LINE
  8
_0-0_
  6
CONTINUOUS
 62
    7
 10
43899.544128267516
 20
25009.463627660873
 11
45199.538268892516
 21
25009.463627660873
  0
LINE
  8
_0-0_
  6
CONTINUOUS
 62
    7
 10
44124.535339205009
 20
24634.468510473373
 11
44124.535339205009
 21
24934.464604223369
  0
LINE
  8
_0-0_
  6
CONTINUOUS
 62
    7
 10
44974.541198580009
 20
24934.464604223369
 11
44974.541198580009
 21
24634.468510473373
  0
LINE
  8
_0-0_
  6
CONTINUOUS
 62
    7
 10
43974.543151705009
 20
24784.466557348373
 11
44274.539245455016
 21
24784.466557348373
  0
LINE
  8
_0-0_
  6
CONTINUOUS
 62
    7
 10
43899.544128267516
 20
24559.469487035873
 11
43899.544128267516
 21
25009.463627660873
  0
LINE
  8
_0-0_
  6
CONTINUOUS
 62
    7
 10
45199.538268892516
 20
25009.463627660873
 11
45199.538268892516
 21
24559.469487035873
  0
LINE
  8
_0-0_
  6
CONTINUOUS
 62
    7
 10
45245.977722017509
 20
24984.462162817123
 11
54424.539611665954
 21
24984.462162817123
  0
LINE
  8
_0-0_
  6
CENTER1
 62
    7
 10
45974.539245455016
 20
16134.465092504621
 11
55624.533630220641
 21
16134.465092504621
  0
LINE
  8
_0-0_
  6
CONTINUOUS
 62
    7
 10
52374.535461275322
 20
24884.466557348373
 11
52674.536437837822
 21
24884.466557348373
  0
LINE
  8
_0-0_
  6
CONTINUOUS
 62
    7
 10
52241.694946138603
 20
24584.485600317123
 11
53507.379272310485
 21
24584.485600317123
  0
LINE
  8
_0-0_
  6
CONTINUOUS
 62
    7
 10
52241.694946138603
 20
24584.485600317123
 11
52241.694946138603
 21
24984.462162817123
  0
LINE
  8
_0-0_
  6
CONTINUOUS
 62
    7
 10
52524.533477632744
 20
24734.468510473373
 11
52524.533477632744
 21
24834.464115942123
  0
LINE
  8
_0-0_
  6
CONTINUOUS
 62
    7
 10
53224.535766451103
 20
24734.468510473373
 11
53224.535766451103
 21
24834.464115942123
  0
LINE
  8
_0-0_
  6
CONTINUOUS
 62
    7
 10
53074.53279861663
 20
24884.466557348373
 11
53374.533782808518
 21
24884.466557348373
  0
LINE
  8
_0-0_
  6
CONTINUOUS
 62
    7
 10
53507.379272310485
 20
24584.485600317123
 11
53507.379272310485
 21
24984.462162817123
  0
LINE
  8
_0-0_
  6
CONTINUOUS
 62
    7
 10
52524.533477632744
 20
24834.464115942123
 11
52524.533477632744
 21
24984.462162817123
  0
LINE
  8
_0-0_
  6
CONTINUOUS
 62
    7
 10
53224.535766451103
 20
24834.464115942123
 11
53224.535766451103
 21
24984.462162817123
  0
LINE
  8
_0-0_
  6
CONTINUOUS
 62
    7
 10
46269.141296236259
 20
24834.464115942123
 11
46269.141296236259
 21
25134.465092504623
  0
LINE
  8
_0-0_
  6
CONTINUOUS
 62
    7
 10
45245.977722017509
 20
24834.464115942123
 11
45245.977722017509
 21
25134.465092504623
  0
LINE
  8
_0-0_
  6
CONTINUOUS
 62
    7
 10
45245.977722017509
 20
24834.464115942123
 11
52241.694946138603
 21
24834.464115942123
  0
LINE
  8
_0-0_
  6
CONTINUOUS
 62
    7
 10
55674.536315767509
 20
22709.466069067123
 11
55674.536315767509
 21
16134.465092504621
  0
LINE
  8
_0-0_
  6
CONTINUOUS
 62
    7
 10
55824.534362642509
 20
22709.466069067123
 11
55824.534362642509
 21
16134.465092504621
  0
LINE
  8
_0-0_
  6
CONTINUOUS
 62
    7
 10
53924.533080904235
 20
24384.465092504623
 11
54774.533386080009
 21
24384.465092504623
  0
LINE
  8
_0-0_
  6
CONTINUOUS
 62
    7
 10
55024.536559908141
 20
24634.468510473373
 11
55024.536559908141
 21
24660.301030004623
  0
LINE
  8
_0-0_
  6
CONTINUOUS
 62
    7
 10
53674.539733736266
 20
24634.468510473373
 11
53674.539733736266
 21
24834.464115942123
  0
LINE
  8
_0-0_
  6
CONTINUOUS
 62
    7
 10
53924.533080904235
 20
24484.465580785873
 11
53924.533080904235
 21
24784.466557348373
  0
LINE
  8
_0-0_
  6
CONTINUOUS
 62
    7
 10
54774.533386080009
 20
24784.466557348373
 11
54774.533386080009
 21
24484.465580785873
  0
LINE
  8
_0-0_
  6
CONTINUOUS
 62
    7
 10
53774.535095064391
 20
24634.468510473373
 11
54074.536071626877
 21
24634.468510473373
  0
LINE
  8
_0-0_
  6
CONTINUOUS
 62
    7
 10
54624.535339205009
 20
24634.468510473373
 11
54924.536315767509
 21
24634.468510473373
  0
LINE
  8
_0-0_
  6
CONTINUOUS
 62
    7
 10
53507.379272310485
 20
24834.464115942123
 11
53674.539733736266
 21
24834.464115942123
  0
LINE
  8
_0-0_
  6
CONTINUOUS
 62
    7
 10
55674.536315767509
 20
23314.743412817123
 11
55824.534362642509
 21
23314.743412817123
  0
LINE
  8
_0-0_
  6
CONTINUOUS
 62
    7
 10
55824.534362642509
 20
23484.467045629623
 11
55974.532409517509
 21
23484.467045629623
  0
LINE
  8
_0-0_
  6
CONTINUOUS
 62
    7
 10
55674.536315767509
 20
22909.466557348373
 11
55824.534362642509
 21
22909.466557348373
  0
LINE
  8
_0-0_
  6
CONTINUOUS
 62
    7
 10
55824.534362642509
 20
22784.464604223369
 11
55974.532409517509
 21
22784.464604223369
  0
LINE
  8
_0-0_
  6
CONTINUOUS
 62
    7
 10
55674.536315767509
 20
22709.466069067123
 11
55974.532409517509
 21
22709.466069067123
  0
LINE
  8
_0-0_
  6
CONTINUOUS
 62
    7
 10
55674.536315767509
 20
23559.466069067123
 11
55974.532409517509
 21
23559.466069067123
  0
LINE
  8
_0-0_
  6
CONTINUOUS
 62
    7
 10
55674.536315767509
 20
23314.743412817123
 11
55674.536315767509
 21
22909.466557348373
  0
LINE
  8
_0-0_
  6
CONTINUOUS
 62
    7
 10
55974.532409517509
 20
23559.466069067123
 11
55974.532409517509
 21
23634.465092504623
  0
LINE
  8
_0-0_
  6
CONTINUOUS
 62
    7
 10
55974.532409517509
 20
22784.464604223369
 11
55974.532409517509
 21
23484.467045629623
  0
LINE
  8
_0-0_
  6
CONTINUOUS
 62
    7
 10
55824.534362642509
 20
23584.467533910873
 11
55824.534362642509
 21
23559.466069067123
  0
LINE
  8
_0-0_
  6
CONTINUOUS
 62
    7
 10
55824.534362642509
 20
23484.467045629623
 11
55824.534362642509
 21
22784.464604223369
  0
LINE
  8
_0-0_
  6
CONTINUOUS
 62
    7
 10
56429.460388033134
 20
23134.463627660873
 11
55084.526061861266
 21
23134.463627660873
  0
LINE
  8
_0-0_
  6
CONTINUOUS
 62
    7
 10
12374.984557955009
 20
16134.465092504621
 11
13129.804870455007
 21
16134.465092504621
  0
LINE
  8
_0-0_
  6
CONTINUOUS
 62
    7
 10
43784.553893892516
 20
15009.465092504621
 11
47355.233581392516
 21
15009.465092504621
  0
LINE
  8
_0-0_
  6
CONTINUOUS
 62
    7
 10
44099.534362642509
 20
15139.465092504619
 11
45389.542175142516
 21
16134.465092504621
  0
LINE
  8
_0-0_
  6
CONTINUOUS
 62
    7
 10
44230.524597017509
 20
15139.465092504619
 11
45389.542175142516
 21
16033.430912817121
  0
LINE
  8
_0-0_
  6
CONTINUOUS
 62
    7
 10
44230.524597017509
 20
15139.465092504619
 11
45389.542175142516
 21
15139.465092504619
  0
LINE
  8
_0-0_
  6
CONTINUOUS
 62
    7
 10
44099.534362642509
 20
15139.465092504619
 11
44099.534362642509
 21
16134.465092504621
  0
LINE
  8
_0-0_
  6
CONTINUOUS
 62
    7
 10
43784.553893892516
 20
15139.465092504619
 11
43784.553893892516
 21
15009.465092504621
  0
LINE
  8
_0-0_
  6
CONTINUOUS
 62
    7
 10
43969.539245455016
 20
15139.465092504619
 11
43969.539245455016
 21
15009.465092504621
  0
LINE
  8
_0-0_
  6
CONTINUOUS
 62
    7
 10
43969.539245455016
 20
15139.465092504619
 11
43969.539245455016
 21
16134.465092504621
  0
LINE
  8
_0-0_
  6
CONTINUOUS
 62
    7
 10
43784.553893892516
 20
15139.465092504619
 11
43969.539245455016
 21
15139.465092504619
  0
LINE
  8
_0-0_
  6
CONTINUOUS
 62
    7
 10
44230.524597017509
 20
16134.465092504621
 11
44230.524597017509
 21
15240.495365942121
  0
LINE
  8
_0-0_
  6
CONTINUOUS
 62
    7
 10
44310.526550142516
 20
15139.465092504619
 11
44310.526550142516
 21
15201.172123754619
  0
LINE
  8
_0-0_
  6
CONTINUOUS
 62
    7
 10
44310.526550142516
 20
15302.206303442119
 11
44310.526550142516
 21
16134.465092504621
  0
LINE
  8
_0-0_
  6
CONTINUOUS
 62
    7
 10
47355.233581392516
 20
15149.467045629621
 11
47355.233581392516
 21
14999.464115942121
  0
LINE
  8
_0-0_
  6
CONTINUOUS
 62
    7
 10
47355.233581392516
 20
15149.467045629621
 11
48049.539733736266
 21
15149.467045629621
  0
LINE
  8
_0-0_
  6
CONTINUOUS
 62
    7
 10
48049.539733736266
 20
14999.464115942121
 11
48049.539733736266
 21
15149.467045629621
  0
LINE
  8
_0-0_
  6
CONTINUOUS
 62
    7
 10
47355.233581392516
 20
14999.464115942121
 11
48049.539733736266
 21
14999.464115942121
  0
LINE
  8
_0-0_
  6
CONTINUOUS
 62
    7
 10
47849.539245455016
 20
14999.464115942121
 11
47849.539245455016
 21
15149.467045629621
  0
LINE
  8
_0-0_
  6
CONTINUOUS
 62
    7
 10
47094.684753267509
 20
15139.465092504619
 11
47355.233581392516
 21
15139.465092504619
  0
LINE
  8
_0-0_
  6
CONTINUOUS
 62
    7
 10
45519.542175142509
 20
15940.516850317121
 11
46843.577819673759
 21
15139.465092504619
  0
LINE
  8
_0-0_
  6
CONTINUOUS
 62
    7
 10
45519.542175142509
 20
16092.460209692121
 11
47094.684753267509
 21
15139.465092504619
  0
LINE
  8
_0-0_
  6
CONTINUOUS
 62
    7
 10
45519.542175142509
 20
15940.516850317121
 11
45519.542175142509
 21
15139.465092504619
  0
LINE
  8
_0-0_
  6
CONTINUOUS
 62
    7
 10
45519.542175142509
 20
16134.465092504621
 11
45519.542175142509
 21
16092.460209692121
  0
LINE
  8
_0-0_
  6
CONTINUOUS
 62
    7
 10
45519.542175142509
 20
15139.465092504619
 11
46843.577819673759
 21
15139.465092504619
  0
LINE
  8
_0-0_
  6
CONTINUOUS
 62
    7
 10
45389.542175142516
 20
16033.430912817121
 11
45389.542175142516
 21
15139.465092504619
  0
LINE
  8
_0-0_
  6
CONTINUOUS
 62
    7
 10
43784.553893892516
 20
17259.465092504623
 11
47355.233581392516
 21
17259.465092504623
  0
LINE
  8
_0-0_
  6
CONTINUOUS
 62
    7
 10
44099.534362642509
 20
17129.465092504623
 11
45389.542175142516
 21
16134.465092504621
  0
LINE
  8
_0-0_
  6
CONTINUOUS
 62
    7
 10
44230.524597017509
 20
17129.465092504623
 11
45389.542175142516
 21
16235.500248754621
  0
LINE
  8
_0-0_
  6
CONTINUOUS
 62
    7
 10
44230.524597017509
 20
17129.465092504623
 11
45389.542175142516
 21
17129.465092504623
  0
LINE
  8
_0-0_
  6
CONTINUOUS
 62
    7
 10
44099.534362642509
 20
17129.465092504623
 11
44099.534362642509
 21
16134.465092504621
  0
LINE
  8
_0-0_
  6
CONTINUOUS
 62
    7
 10
43784.553893892516
 20
17129.465092504623
 11
43784.553893892516
 21
17259.465092504623
  0
LINE
  8
_0-0_
  6
CONTINUOUS
 62
    7
 10
43969.539245455016
 20
17129.465092504623
 11
43969.539245455016
 21
17259.465092504623
  0
LINE
  8
_0-0_
  6
CONTINUOUS
 62
    7
 10
43969.539245455016
 20
17129.465092504623
 11
43969.539245455016
 21
16134.465092504621
  0
LINE
  8
_0-0_
  6
CONTINUOUS
 62
    7
 10
43784.553893892516
 20
17129.465092504623
 11
43969.539245455016
 21
17129.465092504623
  0
LINE
  8
_0-0_
  6
CONTINUOUS
 62
    7
 10
44230.524597017509
 20
16134.465092504621
 11
44230.524597017509
 21
17028.430912817123
  0
LINE
  8
_0-0_
  6
CONTINUOUS
 62
    7
 10
44310.526550142516
 20
17129.465092504623
 11
44310.526550142516
 21
17067.759037817119
  0
LINE
  8
_0-0_
  6
CONTINUOUS
 62
    7
 10
44310.526550142516
 20
16966.729740942123
 11
44310.526550142516
 21
16134.465092504621
  0
LINE
  8
_0-0_
  6
CONTINUOUS
 62
    7
 10
47355.233581392516
 20
17119.464115942123
 11
47355.233581392516
 21
17269.467045629623
  0
LINE
  8
_0-0_
  6
CONTINUOUS
 62
    7
 10
47355.233581392516
 20
17119.464115942123
 11
48049.539733736266
 21
17119.464115942123
  0
LINE
  8
_0-0_
  6
CONTINUOUS
 62
    7
 10
48049.539733736266
 20
17269.467045629623
 11
48049.539733736266
 21
17119.464115942123
  0
LINE
  8
_0-0_
  6
CONTINUOUS
 62
    7
 10
47355.233581392516
 20
17269.467045629623
 11
48049.539733736266
 21
17269.467045629623
  0
LINE
  8
_0-0_
  6
CONTINUOUS
 62
    7
 10
47849.539245455016
 20
17269.467045629623
 11
47849.539245455016
 21
17119.464115942123
  0
LINE
  8
_0-0_
  6
CONTINUOUS
 62
    7
 10
47094.684753267509
 20
17129.465092504623
 11
47355.233581392516
 21
17129.465092504623
  0
LINE
  8
_0-0_
  6
CONTINUOUS
 62
    7
 10
45519.542175142509
 20
16328.413334692121
 11
46843.577819673759
 21
17129.465092504623
  0
LINE
  8
_0-0_
  6
CONTINUOUS
 62
    7
 10
45519.542175142509
 20
16176.475834692121
 11
47094.684753267509
 21
17129.465092504623
  0
LINE
  8
_0-0_
  6
CONTINUOUS
 62
    7
 10
45519.542175142509
 20
16328.413334692121
 11
45519.542175142509
 21
17129.465092504623
  0
LINE
  8
_0-0_
  6
CONTINUOUS
 62
    7
 10
45519.542175142509
 20
16134.465092504621
 11
45519.542175142509
 21
16176.475834692121
  0
LINE
  8
_0-0_
  6
CONTINUOUS
 62
    7
 10
45519.542175142509
 20
17129.465092504623
 11
46843.577819673759
 21
17129.465092504623
  0
LINE
  8
_0-0_
  6
CONTINUOUS
 62
    7
 10
45389.542175142516
 20
16235.500248754621
 11
45389.542175142516
 21
17129.465092504623
  0
LINE
  8
_0-0_
  6
CONTINUOUS
 62
    7
 10
50474.534118501891
 20
16478.644780004619
 11
50474.534118501891
 21
15800.228764379619
  0
LINE
  8
_0-0_
  6
CONTINUOUS
 62
    7
 10
50142.549255220641
 20
16134.465092504621
 11
50819.188171236259
 21
16134.465092504621
  0
LINE
  8
_0-0_
  6
CONTINUOUS
 62
    7
 10
50474.534118501891
 20
13609.466069067123
 11
50474.534118501891
 21
18659.465092504623
  0
LINE
  8
_0-0_
  6
CONTINUOUS
 62
    7
 10
47849.539245455016
 20
16134.465092504621
 11
47849.539245455016
 21
13609.466069067123
  0
LINE
  8
_0-0_
  6
CONTINUOUS
 62
    7
 10
47849.539245455016
 20
16134.465092504621
 11
47849.539245455016
 21
18659.465092504623
  0
LINE
  8
_0-0_
  6
CONTINUOUS
 62
    7
 10
45986.010925142509
 20
18659.465092504623
 11
54963.062682955009
 21
18659.465092504623
  0
LINE
  8
_0-0_
  6
CONTINUOUS
 62
    7
 10
45986.010925142509
 20
13609.466069067123
 11
54963.062682955009
 21
13609.466069067123
  0
LINE
  8
_0-0_
  6
CONTINUOUS
 62
    7
 10
6324.5431517050065
 20
16134.465092504621
 11
19924.543151705009
 21
16134.465092504621
  0
LINE
  8
_0-0_
  6
CENTER2
 62
    7
 10
69866.629089205016
 20
34012.687260473373
 11
69866.629089205016
 21
27688.363163793685
  0
LINE
  8
_0-0_
  6
CONTINUOUS
 62
    7
 10
55084.526061861266
 20
23134.463627660873
 11
53608.037780611266
 21
23134.463627660873
  0
LINE
  8
_0-0_
  6
CONTINUOUS
 62
    7
 10
71216.631042330016
 20
34117.822026098373
 11
68516.623229830002
 21
34117.822026098373
  0
LINE
  8
_0-0_
  6
CONTINUOUS
 62
    7
 10
68516.623229830002
 20
33847.825444067123
 11
71216.631042330016
 21
33847.825444067123
  0
LINE
  8
_0-0_
  6
CONTINUOUS
 62
    7
 10
71316.621276705016
 20
33347.823979223373
 11
68416.617370455016
 21
33347.823979223373
  0
LINE
  8
_0-0_
  6
CONTINUOUS
 62
    7
 10
68516.623229830002
 20
34147.823979223373
 11
68516.623229830002
 21
33847.825444067123
  0
LINE
  8
_0-0_
  6
CONTINUOUS
 62
    7
 10
68616.623229830002
 20
33347.823979223373
 11
68616.623229830002
 21
33847.825444067123
  0
LINE
  8
_0-0_
  6
CONTINUOUS
 62
    7
 10
71216.631042330016
 20
33847.825444067123
 11
71216.631042330016
 21
34147.823979223373
  0
LINE
  8
_0-0_
  6
CONTINUOUS
 62
    7
 10
71116.617370455016
 20
33347.823979223373
 11
71116.617370455016
 21
33847.825444067123
  0
LINE
  8
_0-0_
  6
CONTINUOUS
 62
    7
 10
68266.619323580016
 20
32747.824223363994
 11
68416.617370455016
 21
33347.823979223373
  0
LINE
  8
_0-0_
  6
CONTINUOUS
 62
    7
 10
68483.841979830016
 20
32747.824223363994
 11
68616.623229830002
 21
33347.823979223373
  0
LINE
  8
_0-0_
  6
CONTINUOUS
 62
    7
 10
68784.080261080016
 20
32747.824223363994
 11
68784.080261080016
 21
33347.823979223373
  0
LINE
  8
_0-0_
  6
CONTINUOUS
 62
    7
 10
69066.617370455016
 20
32747.824223363994
 11
69141.616393892516
 21
33347.823979223373
  0
LINE
  8
_0-0_
  6
CONTINUOUS
 62
    7
 10
69241.616393892516
 20
32747.824223363994
 11
69241.616393892516
 21
33347.823979223373
  0
LINE
  8
_0-0_
  6
CONTINUOUS
 62
    7
 10
69866.629089205016
 20
32747.824223363994
 11
69866.629089205016
 21
33347.823979223373
  0
LINE
  8
_0-0_
  6
CONTINUOUS
 62
    7
 10
70491.623229830002
 20
32747.824223363994
 11
70491.623229830002
 21
33347.823979223373
  0
LINE
  8
_0-0_
  6
CONTINUOUS
 62
    7
 10
70591.623229830002
 20
33347.823979223373
 11
70666.623229830002
 21
32747.824223363994
  0
LINE
  8
_0-0_
  6
CONTINUOUS
 62
    7
 10
70949.164245455016
 20
32747.824223363994
 11
70949.164245455016
 21
33347.823979223373
  0
LINE
  8
_0-0_
  6
CONTINUOUS
 62
    7
 10
71116.617370455016
 20
33347.823979223373
 11
71249.386901705002
 21
32747.824223363994
  0
LINE
  8
_0-0_
  6
CONTINUOUS
 62
    7
 10
71316.621276705016
 20
33347.823979223373
 11
71466.619323580016
 21
32747.824223363994
  0
LINE
  8
_0-0_
  6
CONTINUOUS
 62
    7
 10
60866.630065767516
 20
29647.822911108135
 11
60866.630065767516
 21
32747.824223363994
  0
LINE
  8
_0-0_
  6
CONTINUOUS
 62
    7
 10
78366.627136080016
 20
29147.822514379623
 11
61366.632018892502
 21
29147.822514379623
  0
LINE
  8
_0-0_
  6
CONTINUOUS
 62
    7
 10
78866.629089205016
 20
29647.822911108135
 11
78866.629089205016
 21
32747.824223363994
  0
LINE
  8
_0-0_
  6
CONTINUOUS
 62
    7
 10
61366.632018892502
 20
34647.820561254623
 11
61366.632018892502
 21
35047.819584692123
  0
LINE
  8
_0-0_
  6
CONTINUOUS
 62
    7
 10
61366.632018892502
 20
35047.819584692123
 11
78366.627136080016
 21
35047.819584692123
  0
LINE
  8
_0-0_
  6
CONTINUOUS
 62
    7
 10
78366.627136080016
 20
34647.820561254623
 11
78366.627136080016
 21
35047.819584692123
  0
LINE
  8
_0-0_
  6
CONTINUOUS
 62
    7
 10
61366.632018892502
 20
34647.820561254623
 11
78366.627136080016
 21
34647.820561254623
  0
LINE
  8
_0-0_
  6
CONTINUOUS
 62
    7
 10
62241.628112642516
 20
32747.824223363994
 11
62241.628112642516
 21
34647.820561254623
  0
LINE
  8
_0-0_
  6
CONTINUOUS
 62
    7
 10
75866.629089205016
 20
34647.820561254623
 11
75866.629089205016
 21
32747.824223363994
  0
LINE
  8
_0-0_
  6
CONTINUOUS
 62
    7
 10
77366.629089205016
 20
30647.81995090306
 11
77366.629089205016
 21
32747.824223363994
  0
LINE
  8
_0-0_
  6
CONTINUOUS
 62
    7
 10
62366.630065767516
 20
32747.824223363994
 11
62366.630065767516
 21
30647.81995090306
  0
LINE
  8
_0-0_
  6
CONTINUOUS
 62
    7
 10
61013.079772798752
 20
29294.271000707748
 11
62366.630065767516
 21
30647.81995090306
  0
LINE
  8
_0-0_
  6
CONTINUOUS
 62
    7
 10
78720.179870455016
 20
29294.271000707748
 11
77366.629089205016
 21
30647.81995090306
  0
LINE
  8
_0-0_
  6
CONTINUOUS
 62
    7
 10
72035.058776705016
 20
33756.817143285873
 11
72635.060729830016
 21
33756.817143285873
  0
LINE
  8
_0-0_
  6
CONTINUOUS
 62
    7
 10
72035.058776705016
 20
32747.824223363994
 11
72035.058776705016
 21
33756.817143285873
  0
LINE
  8
_0-0_
  6
CONTINUOUS
 62
    7
 10
72635.060729830016
 20
33756.817143285873
 11
72635.060729830016
 21
32747.824223363994
  0
LINE
  8
_0-0_
  6
CONTINUOUS
 62
    7
 10
72106.123229830016
 20
33690.624272192123
 11
72106.123229830016
 21
33222.438725317123
  0
LINE
  8
_0-0_
  6
CONTINUOUS
 62
    7
 10
72106.123229830016
 20
33222.438725317123
 11
72574.304870455016
 21
33222.438725317123
  0
LINE
  8
_0-0_
  6
CONTINUOUS
 62
    7
 10
72574.304870455016
 20
33222.438725317123
 11
72574.304870455016
 21
33690.624272192123
  0
LINE
  8
_0-0_
  6
CONTINUOUS
 62
    7
 10
72574.304870455016
 20
33690.624272192123
 11
72106.123229830016
 21
33690.624272192123
  0
LINE
  8
_0-0_
  6
CONTINUOUS
 62
    7
 10
67698.201354830002
 20
33756.817143285873
 11
67098.199401705002
 21
33756.817143285873
  0
LINE
  8
_0-0_
  6
CONTINUOUS
 62
    7
 10
67698.201354830002
 20
32747.824223363994
 11
67698.201354830002
 21
33756.817143285873
  0
LINE
  8
_0-0_
  6
CONTINUOUS
 62
    7
 10
67098.199401705002
 20
33756.817143285873
 11
67098.199401705002
 21
32747.824223363994
  0
LINE
  8
_0-0_
  6
CONTINUOUS
 62
    7
 10
67627.135925142516
 20
33690.624272192123
 11
67627.135925142516
 21
33222.438725317123
  0
LINE
  8
_0-0_
  6
CONTINUOUS
 62
    7
 10
67627.135925142516
 20
33222.438725317123
 11
67158.955261080016
 21
33222.438725317123
  0
LINE
  8
_0-0_
  6
CONTINUOUS
 62
    7
 10
67158.955261080016
 20
33222.438725317123
 11
67158.955261080016
 21
33690.624272192123
  0
LINE
  8
_0-0_
  6
CONTINUOUS
 62
    7
 10
67158.955261080016
 20
33690.624272192123
 11
67627.135925142516
 21
33690.624272192123
  0
LINE
  8
_0-0_
  6
CONTINUOUS
 62
    7
 10
62872.991393892516
 20
34081.718022192123
 11
62872.991393892516
 21
33402.386967504623
  0
LINE
  8
_0-0_
  6
CONTINUOUS
 62
    7
 10
62872.991393892516
 20
33402.386967504623
 11
63697.890807955016
 21
33402.386967504623
  0
LINE
  8
_0-0_
  6
CONTINUOUS
 62
    7
 10
63697.890807955016
 20
33402.386967504623
 11
63697.890807955016
 21
34081.718022192123
  0
LINE
  8
_0-0_
  6
CONTINUOUS
 62
    7
 10
63697.890807955016
 20
34081.718022192123
 11
62872.991393892516
 21
34081.718022192123
  0
LINE
  8
_0-0_
  6
CONTINUOUS
 62
    7
 10
62991.261901705016
 20
33402.386967504623
 11
62991.261901705016
 21
32747.824223363994
  0
LINE
  8
_0-0_
  6
CONTINUOUS
 62
    7
 10
63608.278503267516
 20
33402.386967504623
 11
63608.278503267516
 21
32747.824223363994
  0
LINE
  8
_0-0_
  6
CONTINUOUS
 62
    7
 10
64501.565612642516
 20
34081.718022192123
 11
64501.565612642516
 21
33402.386967504623
  0
LINE
  8
_0-0_
  6
CONTINUOUS
 62
    7
 10
64501.565612642516
 20
33402.386967504623
 11
65326.466003267509
 21
33402.386967504623
  0
LINE
  8
_0-0_
  6
CONTINUOUS
 62
    7
 10
65326.466003267509
 20
33402.386967504623
 11
65326.466003267509
 21
34081.718022192123
  0
LINE
  8
_0-0_
  6
CONTINUOUS
 62
    7
 10
65326.466003267509
 20
34081.718022192123
 11
64501.565612642516
 21
34081.718022192123
  0
LINE
  8
_0-0_
  6
CONTINUOUS
 62
    7
 10
64619.837097017509
 20
33402.386967504623
 11
64619.837097017509
 21
32747.824223363994
  0
LINE
  8
_0-0_
  6
CONTINUOUS
 62
    7
 10
65236.852722017509
 20
33402.386967504623
 11
65236.852722017509
 21
32747.824223363994
  0
LINE
  8
_0-0_
  6
CONTINUOUS
 62
    7
 10
62870.952331392502
 20
32362.976322973373
 11
62397.570495455009
 21
32362.976322973373
  0
LINE
  8
_0-0_
  6
CONTINUOUS
 62
    7
 10
62870.947448580009
 20
32362.976322973373
 11
63401.601745455016
 21
32362.976322973373
  0
LINE
  8
_0-0_
  6
CONTINUOUS
 62
    7
 10
62440.525573580009
 20
32362.976322973373
 11
62440.525573580009
 21
31921.360600317123
  0
LINE
  8
_0-0_
  6
CONTINUOUS
 62
    7
 10
63301.378112642509
 20
32362.976322973373
 11
63301.378112642509
 21
31921.360600317123
  0
LINE
  8
_0-0_
  6
CONTINUOUS
 62
    7
 10
62440.525573580009
 20
31921.360600317123
 11
63301.378112642509
 21
31921.360600317123
  0
LINE
  8
_0-0_
  6
CONTINUOUS
 62
    7
 10
62870.947448580009
 20
32362.976322973373
 11
62870.947448580009
 21
31971.763920629623
  0
LINE
  8
_0-0_
  6
CONTINUOUS
 62
    7
 10
62870.947448580009
 20
32362.976322973373
 11
62870.947448580009
 21
32855.752690160873
  0
LINE
  8
_0-0_
  6
CONTINUOUS
 62
    7
 10
62870.947448580009
 20
32495.883549535869
 11
62738.037292330009
 21
32362.976322973373
  0
LINE
  8
_0-0_
  6
CONTINUOUS
 62
    7
 10
62870.947448580009
 20
32495.883549535869
 11
63003.856628267509
 21
32362.976322973373
  0
LINE
  8
_0-0_
  6
CONTINUOUS
 62
    7
 10
62870.947448580009
 20
32230.066410863998
 11
63003.856628267509
 21
32362.976322973373
  0
LINE
  8
_0-0_
  6
CONTINUOUS
 62
    7
 10
62738.037292330009
 20
32362.976322973373
 11
62870.947448580009
 21
32230.066410863998
  0
LINE
  8
_0-0_
  6
CONTINUOUS
 62
    7
 10
60866.630065767516
 20
32747.824223363994
 11
62366.630065767516
 21
32747.824223363994
  0
LINE
  8
_0-0_
  6
CONTINUOUS
 62
    7
 10
63301.378112642509
 20
32362.976322973373
 11
63301.378112642509
 21
32747.824223363994
  0
LINE
  8
_0-0_
  6
CONTINUOUS
 62
    7
 10
62440.525573580009
 20
31921.360600317123
 11
62366.630065767516
 21
31921.360600317123
  0
LINE
  8
_0-0_
  6
CONTINUOUS
 62
    7
 10
76862.306823580016
 20
32362.976322973373
 11
77335.689636080016
 21
32362.976322973373
  0
LINE
  8
_0-0_
  6
CONTINUOUS
 62
    7
 10
76862.312682955002
 20
32362.976322973373
 11
76331.658386080016
 21
32362.976322973373
  0
LINE
  8
_0-0_
  6
CONTINUOUS
 62
    7
 10
77292.734557955002
 20
32362.976322973373
 11
77292.734557955002
 21
31921.360600317123
  0
LINE
  8
_0-0_
  6
CONTINUOUS
 62
    7
 10
76431.881042330016
 20
32362.976322973373
 11
76431.881042330016
 21
31921.360600317123
  0
LINE
  8
_0-0_
  6
CONTINUOUS
 62
    7
 10
77292.734557955002
 20
31921.360600317123
 11
76431.881042330016
 21
31921.360600317123
  0
LINE
  8
_0-0_
  6
CONTINUOUS
 62
    7
 10
76862.312682955002
 20
32362.976322973373
 11
76862.312682955002
 21
31971.763920629623
  0
LINE
  8
_0-0_
  6
CONTINUOUS
 62
    7
 10
76862.312682955002
 20
32362.976322973373
 11
76862.312682955002
 21
32855.752690160873
  0
LINE
  8
_0-0_
  6
CONTINUOUS
 62
    7
 10
76862.312682955002
 20
32495.883549535869
 11
76995.222839205002
 21
32362.976322973373
  0
LINE
  8
_0-0_
  6
CONTINUOUS
 62
    7
 10
76862.312682955002
 20
32495.883549535869
 11
76729.402526705002
 21
32362.976322973373
  0
LINE
  8
_0-0_
  6
CONTINUOUS
 62
    7
 10
76862.312682955002
 20
32230.066410863998
 11
76729.402526705002
 21
32362.976322973373
  0
LINE
  8
_0-0_
  6
CONTINUOUS
 62
    7
 10
76995.222839205002
 20
32362.976322973373
 11
76862.312682955002
 21
32230.066410863998
  0
LINE
  8
_0-0_
  6
CONTINUOUS
 62
    7
 10
76431.881042330016
 20
32362.976322973373
 11
76431.881042330016
 21
32747.824223363994
  0
LINE
  8
_0-0_
  6
CONTINUOUS
 62
    7
 10
77292.734557955002
 20
31921.360600317123
 11
77366.629089205016
 21
31921.360600317123
  0
LINE
  8
_0-0_
  6
CONTINUOUS
 62
    7
 10
63301.378112642509
 20
32747.824223363994
 11
76431.881042330016
 21
32747.824223363994
  0
LINE
  8
_0-0_
  6
CONTINUOUS
 62
    7
 10
77366.629089205016
 20
32747.824223363994
 11
78866.629089205016
 21
32747.824223363994
  0
LINE
  8
_0-0_
  6
DASHED2
 62
    7
 10
10474.543151705006
 20
8509.4670456296208
 11
10474.543151705006
 21
13384.464115942121
  0
LINE
  8
_0-0_
  6
DASHED2
 62
    7
 10
10474.543151705006
 20
8509.4670456296208
 11
20674.541198580013
 21
8509.4670456296208
  0
LINE
  8
_0-0_
  6
DASHED2
 62
    7
 10
20674.541198580013
 20
8509.4670456296208
 11
20674.541198580013
 21
22134.465092504623
  0
LINE
  8
_0-0_
  6
DASHED2
 62
    7
 10
10474.543151705006
 20
19069.463139379623
 11
10474.543151705006
 21
22134.465092504623
  0
LINE
  8
_0-0_
  6
DASHED2
 62
    7
 10
10474.543151705006
 20
22134.465092504623
 11
20674.541198580013
 21
22134.465092504623
  0
LINE
  8
_0-0_
  6
CONTINUOUS
 62
    7
 10
31048.588073580016
 20
40710.257084692123
 11
30698.586120455013
 21
40710.257084692123
  0
LINE
  8
_0-0_
  6
CONTINUOUS
 62
    7
 10
30698.586120455013
 20
40680.257084692123
 11
31018.590026705009
 21
40680.257084692123
  0
LINE
  8
_0-0_
  6
CONTINUOUS
 62
    7
 10
31018.590026705009
 20
40280.256108129623
 11
30548.578307955013
 21
40280.256108129623
  0
LINE
  8
_0-0_
  6
CONTINUOUS
 62
    7
 10
30548.578307955013
 20
40310.255131567123
 11
31018.590026705009
 21
40310.255131567123
  0
LINE
  8
_0-0_
  6
CONTINUOUS
 62
    7
 10
31048.588073580016
 20
39830.254155004623
 11
22898.590026705009
 21
39830.254155004623
  0
LINE
  8
_0-0_
  6
CONTINUOUS
 62
    7
 10
22898.590026705009
 20
39865.257084692123
 11
31048.588073580016
 21
39865.257084692123
  0
LINE
  8
_0-0_
  6
CONTINUOUS
 62
    7
 10
31048.588073580016
 20
39830.254155004623
 11
30514.781432955009
 21
39480.258061254623
  0
LINE
  8
_0-0_
  6
CONTINUOUS
 62
    7
 10
31018.590026705009
 20
40680.257084692123
 11
31018.590026705009
 21
39865.257084692123
  0
LINE
  8
_0-0_
  6
CONTINUOUS
 62
    7
 10
31048.588073580016
 20
39865.257084692123
 11
31048.588073580016
 21
39830.254155004623
  0
LINE
  8
_0-0_
  6
CONTINUOUS
 62
    7
 10
31048.588073580016
 20
39865.257084692123
 11
31048.588073580016
 21
39830.254155004623
  0
LINE
  8
_0-0_
  6
CONTINUOUS
 62
    7
 10
23798.591979830009
 20
44050.263920629615
 11
23798.591979830009
 21
46680.605717504623
  0
LINE
  8
_0-0_
  6
CONTINUOUS
 62
    7
 10
24398.580261080009
 20
46830.252201879623
 11
24398.580261080009
 21
45608.244389379623
  0
LINE
  8
_0-0_
  6
CONTINUOUS
 62
    7
 10
23680.246276705013
 20
46451.205326879623
 11
23419.045104830009
 21
46218.242436254623
  0
LINE
  8
_0-0_
  6
CONTINUOUS
 62
    7
 10
24083.593932955009
 20
46780.254155004623
 11
24083.593932955009
 21
45961.422123754615
  0
LINE
  8
_0-0_
  6
CONTINUOUS
 62
    7
 10
24113.584167330013
 20
46780.254155004623
 11
24113.584167330013
 21
45927.785405004623
  0
LINE
  8
_0-0_
  6
CONTINUOUS
 62
    7
 10
23798.591979830009
 20
46280.963139379623
 11
23798.591979830009
 21
47080.258061254623
  0
LINE
  8
_0-0_
  6
CONTINUOUS
 62
    7
 10
23720.590026705013
 20
45905.256108129615
 11
23720.590026705013
 21
47080.258061254623
  0
LINE
  8
_0-0_
  6
CONTINUOUS
 62
    7
 10
23720.590026705013
 20
46368.424076879623
 11
23661.584167330013
 21
46434.566655004615
  0
LINE
  8
_0-0_
  6
CONTINUOUS
 62
    7
 10
23419.045104830009
 20
46218.242436254623
 11
22667.638854830013
 21
46699.808842504623
  0
LINE
  8
_0-0_
  6
CONTINUOUS
 62
    7
 10
21898.576354830013
 20
45905.256108129615
 11
21898.576354830013
 21
46830.252201879623
  0
LINE
  8
_0-0_
  6
CONTINUOUS
 62
    7
 10
23148.578307955009
 20
46830.252201879623
 11
23148.578307955009
 21
45905.256108129615
  0
LINE
  8
_0-0_
  6
CONTINUOUS
 62
    7
 10
23113.580261080009
 20
46795.260014379615
 11
23113.580261080009
 21
45905.256108129615
  0
LINE
  8
_0-0_
  6
CONTINUOUS
 62
    7
 10
21933.584167330009
 20
46795.260014379615
 11
21933.584167330009
 21
45905.256108129615
  0
LINE
  8
_0-0_
  6
CONTINUOUS
 62
    7
 10
22113.586120455013
 20
46795.260014379615
 11
22113.586120455013
 21
45905.256108129615
  0
LINE
  8
_0-0_
  6
CONTINUOUS
 62
    7
 10
22148.584167330009
 20
45905.256108129615
 11
22148.584167330009
 21
46795.260014379615
  0
LINE
  8
_0-0_
  6
CONTINUOUS
 62
    7
 10
22863.576354830009
 20
46795.260014379615
 11
22863.576354830009
 21
45905.256108129615
  0
LINE
  8
_0-0_
  6
CONTINUOUS
 62
    7
 10
22898.590026705009
 20
46795.260014379615
 11
22898.590026705009
 21
45905.256108129615
  0
LINE
  8
_0-0_
  6
CONTINUOUS
 62
    7
 10
22848.582214205013
 20
46583.851811254623
 11
22848.582214205013
 21
46365.258061254623
  0
LINE
  8
_0-0_
  6
CONTINUOUS
 62
    7
 10
22648.582214205013
 20
46365.258061254623
 11
22648.582214205013
 21
46714.297123754623
  0
LINE
  8
_0-0_
  6
CONTINUOUS
 62
    7
 10
25418.314636080013
 20
40710.257084692123
 11
23048.578307955009
 21
40710.257084692123
  0
LINE
  8
_0-0_
  6
CONTINUOUS
 62
    7
 10
23078.588073580013
 20
40680.257084692123
 11
24768.314636080013
 21
40680.257084692123
  0
LINE
  8
_0-0_
  6
CONTINUOUS
 62
    7
 10
23315.431823580009
 20
42975.259037817123
 11
24513.506042330013
 21
42975.259037817123
  0
LINE
  8
_0-0_
  6
CONTINUOUS
 62
    7
 10
24483.515807955009
 20
42945.259037817115
 11
23345.441589205009
 21
42945.259037817115
  0
LINE
  8
_0-0_
  6
CONTINUOUS
 62
    7
 10
23168.314636080013
 20
40310.255131567123
 11
23938.306823580009
 21
40310.255131567123
  0
LINE
  8
_0-0_
  6
CONTINUOUS
 62
    7
 10
23938.306823580009
 20
40280.256108129623
 11
23168.314636080013
 21
40280.256108129623
  0
LINE
  8
_0-0_
  6
CONTINUOUS
 62
    7
 10
23195.433776705013
 20
42575.258061254623
 11
23833.515807955009
 21
42575.258061254623
  0
LINE
  8
_0-0_
  6
CONTINUOUS
 62
    7
 10
23195.433776705013
 20
42545.258061254615
 11
23833.515807955009
 21
42545.258061254615
  0
LINE
  8
_0-0_
  6
CONTINUOUS
 62
    7
 10
22898.590026705009
 20
38980.259037817123
 11
28128.582214205009
 21
38980.259037817123
  0
LINE
  8
_0-0_
  6
CONTINUOUS
 62
    7
 10
28128.582214205009
 20
39280.253178442123
 11
22898.590026705009
 21
39280.253178442123
  0
LINE
  8
_0-0_
  6
CONTINUOUS
 62
    7
 10
21848.597839205009
 20
40760.257084692123
 11
28128.582214205009
 21
40760.257084692123
  0
LINE
  8
_0-0_
  6
CONTINUOUS
 62
    7
 10
23048.578307955009
 20
42200.250248754623
 11
25048.590026705009
 21
42200.250248754623
  0
LINE
  8
_0-0_
  6
CONTINUOUS
 62
    7
 10
23148.578307955009
 20
42270.258061254623
 11
24948.584167330009
 21
42270.258061254623
  0
LINE
  8
_0-0_
  6
CONTINUOUS
 62
    7
 10
23198.757995455013
 20
41810.258061254623
 11
24434.978698580013
 21
41810.258061254623
  0
LINE
  8
_0-0_
  6
CONTINUOUS
 62
    7
 10
27211.345886080016
 20
41910.256108129623
 11
22898.590026705009
 21
41910.256108129623
  0
LINE
  8
_0-0_
  6
CONTINUOUS
 62
    7
 10
22898.590026705009
 20
42080.252201879623
 11
27143.172057955009
 21
42080.252201879623
  0
LINE
  8
_0-0_
  6
CONTINUOUS
 62
    7
 10
22898.590026705009
 20
42130.259037817123
 11
27098.588073580016
 21
42130.259037817123
  0
LINE
  8
_0-0_
  6
CONTINUOUS
 62
    7
 10
24648.588073580013
 20
40160.257084692123
 11
24648.588073580013
 21
41560.260014379623
  0
LINE
  8
_0-0_
  6
CONTINUOUS
 62
    7
 10
24648.588073580013
 20
41560.260014379623
 11
23248.584167330009
 21
41560.260014379623
  0
LINE
  8
_0-0_
  6
CONTINUOUS
 62
    7
 10
23248.584167330009
 20
41560.260014379623
 11
23248.584167330009
 21
40160.257084692123
  0
LINE
  8
_0-0_
  6
CONTINUOUS
 62
    7
 10
23248.584167330009
 20
40160.257084692123
 11
24648.588073580013
 21
40160.257084692123
  0
LINE
  8
_0-0_
  6
CONTINUOUS
 62
    7
 10
24578.576354830013
 20
40230.256108129623
 11
24578.576354830013
 21
41490.254155004623
  0
LINE
  8
_0-0_
  6
CONTINUOUS
 62
    7
 10
24578.576354830013
 20
41490.254155004623
 11
23318.599792330009
 21
41490.254155004623
  0
LINE
  8
_0-0_
  6
CONTINUOUS
 62
    7
 10
23318.599792330009
 20
41490.254155004623
 11
23318.599792330009
 21
40230.256108129623
  0
LINE
  8
_0-0_
  6
CONTINUOUS
 62
    7
 10
23318.599792330009
 20
40230.256108129623
 11
24578.576354830013
 21
40230.256108129623
  0
LINE
  8
_0-0_
  6
CONTINUOUS
 62
    7
 10
24578.576354830013
 20
41357.255131567123
 11
23318.599792330009
 21
41357.255131567123
  0
LINE
  8
_0-0_
  6
CONTINUOUS
 62
    7
 10
23318.599792330009
 20
41224.256108129623
 11
24578.576354830013
 21
41224.256108129623
  0
LINE
  8
_0-0_
  6
CONTINUOUS
 62
    7
 10
24578.576354830013
 20
41091.257084692123
 11
23318.599792330009
 21
41091.257084692123
  0
LINE
  8
_0-0_
  6
CONTINUOUS
 62
    7
 10
23318.599792330009
 20
40958.258061254623
 11
24578.576354830013
 21
40958.258061254623
  0
LINE
  8
_0-0_
  6
CONTINUOUS
 62
    7
 10
24578.576354830013
 20
40825.259037817123
 11
23318.599792330009
 21
40825.259037817123
  0
LINE
  8
_0-0_
  6
CONTINUOUS
 62
    7
 10
23318.599792330009
 20
40692.260990942123
 11
24578.576354830013
 21
40692.260990942123
  0
LINE
  8
_0-0_
  6
CONTINUOUS
 62
    7
 10
24578.576354830013
 20
40559.254155004623
 11
23318.599792330009
 21
40559.254155004623
  0
LINE
  8
_0-0_
  6
CONTINUOUS
 62
    7
 10
23318.599792330009
 20
40426.262944067123
 11
24578.576354830013
 21
40426.262944067123
  0
LINE
  8
_0-0_
  6
CONTINUOUS
 62
    7
 10
24578.576354830013
 20
40293.256108129623
 11
23318.599792330009
 21
40293.256108129623
  0
LINE
  8
_0-0_
  6
CONTINUOUS
 62
    7
 10
24398.580261080009
 20
42560.253178442123
 11
21924.824401705009
 21
42560.253178442123
  0
LINE
  8
_0-0_
  6
CONTINUOUS
 62
    7
 10
21848.455261080013
 20
42680.259037817123
 11
24398.580261080009
 21
42680.259037817123
  0
LINE
  8
_0-0_
  6
CONTINUOUS
 62
    7
 10
21848.597839205009
 20
40910.255131567123
 11
23977.873229830013
 21
40910.255131567123
  0
LINE
  8
_0-0_
  6
CONTINUOUS
 62
    7
 10
23198.757995455013
 20
41810.258061254623
 11
24014.017761080013
 21
40994.809819067123
  0
LINE
  8
_0-0_
  6
CONTINUOUS
 62
    7
 10
23423.582214205013
 20
42453.606694067123
 11
23573.580261080009
 21
42453.606694067123
  0
LINE
  8
_0-0_
  6
CONTINUOUS
 62
    7
 10
21898.576354830013
 20
45830.254155004623
 11
23798.591979830009
 21
45830.254155004623
  0
LINE
  8
_0-0_
  6
CONTINUOUS
 62
    7
 10
23798.591979830009
 20
45905.256108129615
 11
21898.576354830013
 21
45905.256108129615
  0
LINE
  8
_0-0_
  6
CONTINUOUS
 62
    7
 10
23720.590026705013
 20
45960.252201879623
 11
21898.576354830013
 21
45960.252201879623
  0
LINE
  8
_0-0_
  6
CONTINUOUS
 62
    7
 10
23682.636901705009
 20
45960.252201879623
 11
23437.697448580009
 21
46234.883061254615
  0
LINE
  8
_0-0_
  6
CONTINUOUS
 62
    7
 10
28460.670104830013
 20
41053.795170629623
 11
24398.580261080009
 21
45608.244389379623
  0
LINE
  8
_0-0_
  6
CONTINUOUS
 62
    7
 10
28236.771667330016
 20
40854.103764379623
 11
24113.584167330013
 21
45477.073490942123
  0
LINE
  8
_0-0_
  6
CONTINUOUS
 62
    7
 10
30619.398620455013
 20
41931.985600317123
 11
30327.881042330013
 21
39730.254155004623
  0
LINE
  8
_0-0_
  6
CONTINUOUS
 62
    7
 10
29848.580261080009
 20
40080.258061254623
 11
29848.580261080009
 21
42061.065678442123
  0
LINE
  8
_0-0_
  6
CONTINUOUS
 62
    7
 10
30551.595886080009
 20
41952.110600317123
 11
30304.052917330013
 21
40080.258061254623
  0
LINE
  8
_0-0_
  6
CONTINUOUS
 62
    7
 10
29778.578307955013
 20
41480.252201879623
 11
29778.578307955013
 21
40580.259037817123
  0
LINE
  8
_0-0_
  6
CONTINUOUS
 62
    7
 10
28578.586120455009
 20
40851.498295629623
 11
28578.586120455009
 21
41480.252201879623
  0
LINE
  8
_0-0_
  6
CONTINUOUS
 62
    7
 10
24763.232604830009
 20
40845.608647192123
 11
23798.591979830009
 21
41810.258061254623
  0
LINE
  8
_0-0_
  6
CONTINUOUS
 62
    7
 10
27015.127136080013
 20
42130.259037817123
 11
28128.582214205009
 21
40881.829350317123
  0
LINE
  8
_0-0_
  6
CONTINUOUS
 62
    7
 10
24998.591979830009
 20
42080.252201879623
 11
24998.591979830009
 21
39865.257084692123
  0
LINE
  8
_0-0_
  6
CONTINUOUS
 62
    7
 10
24884.976745455013
 20
41623.864506567123
 11
25537.687682955013
 21
40971.144780004623
  0
LINE
  8
_0-0_
  6
CONTINUOUS
 62
    7
 10
25108.701354830013
 20
41810.258061254623
 11
25108.701354830013
 21
39960.259037817123
  0
LINE
  8
_0-0_
  6
CONTINUOUS
 62
    7
 10
25808.709167330016
 20
39960.259037817123
 11
25808.709167330016
 21
41810.258061254623
  0
LINE
  8
_0-0_
  6
CONTINUOUS
 62
    7
 10
30668.586120455013
 20
40710.257084692123
 11
30698.586120455013
 21
40710.257084692123
  0
LINE
  8
_0-0_
  6
CONTINUOUS
 62
    7
 10
30518.588073580009
 20
40560.259037817123
 11
30518.588073580009
 21
39865.257084692123
  0
LINE
  8
_0-0_
  6
CONTINUOUS
 62
    7
 10
30548.578307955013
 20
39865.257084692123
 11
30548.578307955013
 21
40530.259037817123
  0
LINE
  8
_0-0_
  6
CONTINUOUS
 62
    7
 10
24738.314636080013
 20
40310.255131567123
 11
23968.316589205009
 21
40310.255131567123
  0
LINE
  8
_0-0_
  6
CONTINUOUS
 62
    7
 10
23968.316589205009
 20
40280.256108129623
 11
24738.314636080013
 21
40280.256108129623
  0
LINE
  8
_0-0_
  6
CONTINUOUS
 62
    7
 10
25768.306823580009
 20
40710.257084692123
 11
27898.334167330013
 21
40710.257084692123
  0
LINE
  8
_0-0_
  6
CONTINUOUS
 62
    7
 10
27868.324401705013
 20
40680.257084692123
 11
25798.312682955009
 21
40680.257084692123
  0
LINE
  8
_0-0_
  6
CONTINUOUS
 62
    7
 10
26448.310729830006
 20
40280.256108129623
 11
27218.308776705009
 21
40280.256108129623
  0
LINE
  8
_0-0_
  6
CONTINUOUS
 62
    7
 10
27218.308776705009
 20
40310.255131567123
 11
26448.310729830006
 21
40310.255131567123
  0
LINE
  8
_0-0_
  6
CONTINUOUS
 62
    7
 10
27218.308776705009
 20
40680.257084692123
 11
27218.308776705009
 21
39865.257084692123
  0
LINE
  8
_0-0_
  6
CONTINUOUS
 62
    7
 10
27248.318542330013
 20
39865.257084692123
 11
27248.318542330013
 21
40680.257084692123
  0
LINE
  8
_0-0_
  6
CONTINUOUS
 62
    7
 10
27248.318542330013
 20
40310.255131567123
 11
28018.312682955013
 21
40310.255131567123
  0
LINE
  8
_0-0_
  6
CONTINUOUS
 62
    7
 10
28018.312682955013
 20
40280.256108129623
 11
27248.318542330013
 21
40280.256108129623
  0
LINE
  8
_0-0_
  6
CONTINUOUS
 62
    7
 10
28018.312682955013
 20
40530.259037817123
 11
28018.312682955013
 21
39865.257084692123
  0
LINE
  8
_0-0_
  6
CONTINUOUS
 62
    7
 10
28048.322448580013
 20
39865.257084692123
 11
28048.322448580013
 21
40560.259037817123
  0
LINE
  8
_0-0_
  6
CONTINUOUS
 62
    7
 10
25618.314636080016
 20
40560.259037817123
 11
25618.314636080016
 21
39865.257084692123
  0
LINE
  8
_0-0_
  6
CONTINUOUS
 62
    7
 10
25648.324401705009
 20
40530.259037817123
 11
25648.324401705009
 21
39865.257084692123
  0
LINE
  8
_0-0_
  6
CONTINUOUS
 62
    7
 10
25648.324401705009
 20
40310.255131567123
 11
26418.302917330016
 21
40310.255131567123
  0
LINE
  8
_0-0_
  6
CONTINUOUS
 62
    7
 10
26418.302917330016
 20
40280.256108129623
 11
25648.324401705009
 21
40280.256108129623
  0
LINE
  8
_0-0_
  6
CONTINUOUS
 62
    7
 10
26418.302917330016
 20
39865.257084692123
 11
26418.302917330016
 21
40680.257084692123
  0
LINE
  8
_0-0_
  6
CONTINUOUS
 62
    7
 10
26448.310729830006
 20
40680.257084692123
 11
26448.310729830006
 21
39865.257084692123
  0
LINE
  8
_0-0_
  6
CONTINUOUS
 62
    7
 10
25568.306823580009
 20
40560.259037817123
 11
25568.306823580009
 21
39865.257084692123
  0
LINE
  8
_0-0_
  6
CONTINUOUS
 62
    7
 10
25538.316589205013
 20
39865.257084692123
 11
25538.316589205013
 21
40530.259037817123
  0
LINE
  8
_0-0_
  6
CONTINUOUS
 62
    7
 10
25538.316589205013
 20
40310.255131567123
 11
24768.314636080013
 21
40310.255131567123
  0
LINE
  8
_0-0_
  6
CONTINUOUS
 62
    7
 10
24768.314636080013
 20
40280.256108129623
 11
25538.316589205013
 21
40280.256108129623
  0
LINE
  8
_0-0_
  6
CONTINUOUS
 62
    7
 10
25388.314636080013
 20
40680.257084692123
 11
24768.314636080013
 21
40680.257084692123
  0
LINE
  8
_0-0_
  6
CONTINUOUS
 62
    7
 10
24738.314636080013
 20
40680.257084692123
 11
24738.314636080013
 21
39865.257084692123
  0
LINE
  8
_0-0_
  6
CONTINUOUS
 62
    7
 10
24768.314636080013
 20
39865.257084692123
 11
24768.314636080013
 21
40680.257084692123
  0
LINE
  8
_0-0_
  6
CONTINUOUS
 62
    7
 10
23938.306823580009
 20
40680.257084692123
 11
23938.306823580009
 21
39865.257084692123
  0
LINE
  8
_0-0_
  6
CONTINUOUS
 62
    7
 10
23968.316589205009
 20
39865.257084692123
 11
23968.316589205009
 21
40680.257084692123
  0
LINE
  8
_0-0_
  6
CONTINUOUS
 62
    7
 10
28128.582214205009
 20
38980.259037817123
 11
28128.582214205009
 21
39730.254155004623
  0
LINE
  8
_0-0_
  6
CONTINUOUS
 62
    7
 10
28168.582214205013
 20
39730.254155004623
 11
28168.582214205013
 21
38980.259037817123
  0
LINE
  8
_0-0_
  6
CONTINUOUS
 62
    7
 10
30228.584167330013
 20
38980.259037817123
 11
30327.881042330013
 21
39730.254155004623
  0
LINE
  8
_0-0_
  6
CONTINUOUS
 62
    7
 10
29073.484557955009
 20
40035.367436254623
 11
28878.582214205009
 21
38980.259037817123
  0
LINE
  8
_0-0_
  6
CONTINUOUS
 62
    7
 10
25678.580261080016
 20
38950.260014379623
 11
28378.584167330013
 21
38950.260014379623
  0
LINE
  8
_0-0_
  6
CONTINUOUS
 62
    7
 10
28378.584167330013
 20
38680.256108129623
 11
25678.580261080016
 21
38680.256108129623
  0
LINE
  8
_0-0_
  6
CONTINUOUS
 62
    7
 10
25578.580261080013
 20
38180.254155004623
 11
28478.584167330013
 21
38180.254155004623
  0
LINE
  8
_0-0_
  6
CONTINUOUS
 62
    7
 10
28168.582214205013
 20
38980.259037817123
 11
30228.584167330013
 21
38980.259037817123
  0
LINE
  8
_0-0_
  6
CONTINUOUS
 62
    7
 10
28378.584167330013
 20
38980.259037817123
 11
28378.584167330013
 21
38680.256108129623
  0
LINE
  8
_0-0_
  6
CONTINUOUS
 62
    7
 10
28278.590026705013
 20
38180.254155004623
 11
28278.590026705013
 21
38680.256108129623
  0
LINE
  8
_0-0_
  6
CONTINUOUS
 62
    7
 10
25678.580261080016
 20
38680.256108129623
 11
25678.580261080016
 21
38980.259037817123
  0
LINE
  8
_0-0_
  6
CONTINUOUS
 62
    7
 10
25778.586120455009
 20
38180.254155004623
 11
25778.586120455009
 21
38680.256108129623
  0
LINE
  8
_0-0_
  6
CONTINUOUS
 62
    7
 10
28128.582214205009
 20
39730.254155004623
 11
28168.582214205013
 21
39730.254155004623
  0
LINE
  8
_0-0_
  6
CONTINUOUS
 62
    7
 10
30514.781432955009
 20
39480.258061254623
 11
30294.793151705009
 21
39480.258061254623
  0
LINE
  8
_0-0_
  6
CONTINUOUS
 62
    7
 10
30327.881042330013
 20
39730.254155004623
 11
28168.582214205013
 21
39730.254155004623
  0
LINE
  8
_0-0_
  6
CONTINUOUS
 62
    7
 10
28878.582214205009
 20
40230.256108129623
 11
28878.582214205009
 21
39930.252201879623
  0
LINE
  8
_0-0_
  6
CONTINUOUS
 62
    7
 10
28728.588073580009
 20
40080.258061254623
 11
29028.584167330013
 21
40080.258061254623
  0
LINE
  8
_0-0_
  6
CONTINUOUS
 62
    7
 10
29778.578307955013
 20
40910.255131567123
 11
29848.580261080009
 21
40910.255131567123
  0
LINE
  8
_0-0_
  6
CONTINUOUS
 62
    7
 10
29848.580261080009
 20
40760.257084692123
 11
29778.578307955013
 21
40760.257084692123
  0
LINE
  8
_0-0_
  6
CONTINUOUS
 62
    7
 10
30190.834167330013
 20
39980.252201879623
 11
29948.580261080009
 21
39980.252201879623
  0
LINE
  8
_0-0_
  6
CONTINUOUS
 62
    7
 10
30304.918151705009
 20
40080.258061254623
 11
30304.052917330013
 21
40080.258061254623
  0
LINE
  8
_0-0_
  6
CONTINUOUS
 62
    7
 10
28460.670104830013
 20
41053.795170629623
 11
28236.771667330016
 21
40854.103764379623
  0
LINE
  8
_0-0_
  6
CONTINUOUS
 62
    7
 10
29041.935729830016
 20
40195.663334692123
 11
28557.759948580009
 21
40880.963139379623
  0
LINE
  8
_0-0_
  6
CONTINUOUS
 62
    7
 10
28353.023620455009
 20
40842.959233129623
 11
28210.390807955013
 21
39865.257084692123
  0
LINE
  8
_0-0_
  6
CONTINUOUS
 62
    7
 10
28236.771667330016
 20
40854.103764379623
 11
28343.398620455013
 21
40777.001225317123
  0
LINE
  8
_0-0_
  6
CONTINUOUS
 62
    7
 10
28557.759948580009
 20
40880.963139379623
 11
28460.670104830013
 21
41053.795170629623
  0
LINE
  8
_0-0_
  6
CONTINUOUS
 62
    7
 10
29678.574401705009
 20
40480.261967504623
 11
28840.857604830013
 21
40480.261967504623
  0
LINE
  8
_0-0_
  6
CONTINUOUS
 62
    7
 10
28103.238464205016
 20
40910.255131567123
 11
25606.937682955016
 21
40910.255131567123
  0
LINE
  8
_0-0_
  6
CONTINUOUS
 62
    7
 10
24781.953307955009
 20
40514.222905004623
 11
24781.953307955009
 21
40666.155522192123
  0
LINE
  8
_0-0_
  6
CONTINUOUS
 62
    7
 10
24781.953307955009
 20
40666.155522192123
 11
25458.705261080009
 21
40666.155522192123
  0
LINE
  8
_0-0_
  6
CONTINUOUS
 62
    7
 10
25458.705261080009
 20
40666.155522192123
 11
25458.705261080009
 21
40514.222905004623
  0
LINE
  8
_0-0_
  6
CONTINUOUS
 62
    7
 10
25458.705261080009
 20
40514.222905004623
 11
24781.953307955009
 21
40514.222905004623
  0
LINE
  8
_0-0_
  6
CONTINUOUS
 62
    7
 10
28128.582214205009
 20
39730.254155004623
 11
28128.582214205009
 21
40975.405522192123
  0
LINE
  8
_0-0_
  6
CONTINUOUS
 62
    7
 10
28628.591979830013
 20
37580.254155004623
 11
28478.584167330013
 21
38180.254155004623
  0
LINE
  8
_0-0_
  6
CONTINUOUS
 62
    7
 10
28411.359557955013
 20
37580.254155004623
 11
28278.590026705013
 21
38180.254155004623
  0
LINE
  8
_0-0_
  6
CONTINUOUS
 62
    7
 10
28111.121276705013
 20
37580.254155004623
 11
28111.121276705013
 21
38180.254155004623
  0
LINE
  8
_0-0_
  6
CONTINUOUS
 62
    7
 10
27828.586120455009
 20
37580.254155004623
 11
27753.591979830013
 21
38180.254155004623
  0
LINE
  8
_0-0_
  6
CONTINUOUS
 62
    7
 10
27653.586120455009
 20
37580.254155004623
 11
27653.586120455009
 21
38180.254155004623
  0
LINE
  8
_0-0_
  6
CONTINUOUS
 62
    7
 10
27028.582214205016
 20
37580.254155004623
 11
27028.582214205016
 21
38180.254155004623
  0
LINE
  8
_0-0_
  6
CONTINUOUS
 62
    7
 10
26403.590026705013
 20
37580.254155004623
 11
26403.590026705013
 21
38180.254155004623
  0
LINE
  8
_0-0_
  6
CONTINUOUS
 62
    7
 10
26303.588073580009
 20
38180.254155004623
 11
26228.580261080016
 21
37580.254155004623
  0
LINE
  8
_0-0_
  6
CONTINUOUS
 62
    7
 10
25946.043151705009
 20
37580.254155004623
 11
25946.043151705009
 21
38180.254155004623
  0
LINE
  8
_0-0_
  6
CONTINUOUS
 62
    7
 10
25778.586120455009
 20
38180.254155004623
 11
25645.814636080013
 21
37580.254155004623
  0
LINE
  8
_0-0_
  6
CONTINUOUS
 62
    7
 10
25578.580261080013
 20
38180.254155004623
 11
25428.591979830013
 21
37580.254155004623
  0
LINE
  8
_0-0_
  6
CONTINUOUS
 62
    7
 10
25108.701354830013
 20
39960.259037817123
 11
25808.709167330016
 21
39960.259037817123
  0
LINE
  8
_0-0_
  6
CONTINUOUS
 62
    7
 10
25308.697448580009
 20
41160.258061254623
 11
25608.709167330016
 21
41160.258061254623
  0
LINE
  8
_0-0_
  6
CONTINUOUS
 62
    7
 10
28178.584167330013
 20
42587.619389379623
 11
28178.584167330013
 21
42384.805912817123
  0
LINE
  8
_0-0_
  6
CONTINUOUS
 62
    7
 10
29068.586120455013
 20
42627.969975317123
 11
29068.586120455013
 21
42430.255131567123
  0
LINE
  8
_0-0_
  6
CONTINUOUS
 62
    7
 10
29016.039245455009
 20
42677.898686254623
 11
28226.033386080009
 21
42637.557865942123
  0
LINE
  8
_0-0_
  6
CONTINUOUS
 62
    7
 10
24633.504089205009
 20
42545.258061254615
 11
23863.506042330013
 21
42545.258061254615
  0
LINE
  8
_0-0_
  6
CONTINUOUS
 62
    7
 10
23863.506042330013
 20
42575.258061254623
 11
24633.504089205009
 21
42575.258061254623
  0
LINE
  8
_0-0_
  6
CONTINUOUS
 62
    7
 10
24633.504089205009
 20
42795.254155004623
 11
24633.504089205009
 21
42130.259037817123
  0
LINE
  8
_0-0_
  6
CONTINUOUS
 62
    7
 10
24663.494323580013
 20
42130.259037817123
 11
24663.494323580013
 21
42825.260990942123
  0
LINE
  8
_0-0_
  6
CONTINUOUS
 62
    7
 10
24718.316589205009
 20
42825.260990942123
 11
24718.316589205009
 21
42130.259037817123
  0
LINE
  8
_0-0_
  6
CONTINUOUS
 62
    7
 10
24748.306823580013
 20
42795.254155004623
 11
24748.306823580013
 21
42130.259037817123
  0
LINE
  8
_0-0_
  6
CONTINUOUS
 62
    7
 10
25518.318542330009
 20
42130.259037817123
 11
25518.318542330009
 21
42945.259037817115
  0
LINE
  8
_0-0_
  6
CONTINUOUS
 62
    7
 10
25548.318542330013
 20
42945.259037817115
 11
25548.318542330013
 21
42130.259037817123
  0
LINE
  8
_0-0_
  6
CONTINUOUS
 62
    7
 10
26348.310729830006
 20
42130.259037817123
 11
26348.310729830006
 21
42945.259037817115
  0
LINE
  8
_0-0_
  6
CONTINUOUS
 62
    7
 10
24748.306823580013
 20
42575.258061254623
 11
25518.318542330009
 21
42575.258061254623
  0
LINE
  8
_0-0_
  6
CONTINUOUS
 62
    7
 10
25518.318542330009
 20
42545.258061254615
 11
24748.306823580013
 21
42545.258061254615
  0
LINE
  8
_0-0_
  6
CONTINUOUS
 62
    7
 10
25548.318542330013
 20
42545.258061254615
 11
26318.316589205016
 21
42545.258061254615
  0
LINE
  8
_0-0_
  6
CONTINUOUS
 62
    7
 10
26318.316589205016
 20
42575.258061254623
 11
25548.318542330013
 21
42575.258061254623
  0
LINE
  8
_0-0_
  6
CONTINUOUS
 62
    7
 10
26318.316589205016
 20
42945.259037817115
 11
26318.316589205016
 21
42130.259037817123
  0
LINE
  8
_0-0_
  6
CONTINUOUS
 62
    7
 10
26942.527526705009
 20
42130.259037817123
 11
26942.527526705009
 21
42795.254155004623
  0
LINE
  8
_0-0_
  6
CONTINUOUS
 62
    7
 10
26972.537292330013
 20
42130.259037817123
 11
26972.537292330013
 21
42825.260990942123
  0
LINE
  8
_0-0_
  6
CONTINUOUS
 62
    7
 10
26942.527526705009
 20
42545.258061254615
 11
26348.310729830006
 21
42545.258061254615
  0
LINE
  8
_0-0_
  6
CONTINUOUS
 62
    7
 10
26942.527526705009
 20
42575.258061254623
 11
26348.310729830006
 21
42575.258061254623
  0
LINE
  8
_0-0_
  6
CONTINUOUS
 62
    7
 10
24868.318542330009
 20
42975.259037817123
 11
26855.201354830013
 21
42975.259037817123
  0
LINE
  8
_0-0_
  6
CONTINUOUS
 62
    7
 10
26837.613464205016
 20
42945.259037817115
 11
24898.318542330013
 21
42945.259037817115
  0
LINE
  8
_0-0_
  6
CONTINUOUS
 62
    7
 10
23863.506042330013
 20
42130.259037817123
 11
23863.506042330013
 21
42945.259037817115
  0
LINE
  8
_0-0_
  6
CONTINUOUS
 62
    7
 10
23833.515807955009
 20
42945.259037817115
 11
23833.515807955009
 21
42130.259037817123
  0
LINE
  8
_0-0_
  6
CONTINUOUS
 62
    7
 10
27898.453307955016
 20
43227.373295629623
 11
28198.013854830016
 21
43301.756108129623
  0
LINE
  8
_0-0_
  6
CONTINUOUS
 62
    7
 10
28172.273620455009
 20
43405.400639379623
 11
27872.713073580009
 21
43331.010990942123
  0
LINE
  8
_0-0_
  6
CONTINUOUS
 62
    7
 10
28578.586120455009
 20
41750.259037817123
 11
28578.586120455009
 21
42210.215092504623
  0
LINE
  8
_0-0_
  6
CONTINUOUS
 62
    7
 10
29778.578307955013
 20
42112.421147192123
 11
29778.578307955013
 21
41750.259037817123
  0
LINE
  8
_0-0_
  6
CONTINUOUS
 62
    7
 10
28678.580261080016
 20
41580.260014379623
 11
29678.574401705009
 21
41580.260014379623
  0
LINE
  8
_0-0_
  6
CONTINUOUS
 62
    7
 10
29678.574401705009
 20
41650.258061254623
 11
28678.580261080016
 21
41650.258061254623
  0
LINE
  8
_0-0_
  6
CONTINUOUS
 62
    7
 10
30449.175964205013
 20
42167.635014379623
 11
29068.586120455013
 21
42430.255131567123
  0
LINE
  8
_0-0_
  6
CONTINUOUS
 62
    7
 10
29068.586120455013
 20
42330.258061254623
 11
29697.269714205016
 21
42210.660405004623
  0
LINE
  8
_0-0_
  6
CONTINUOUS
 62
    7
 10
30542.961120455016
 20
41880.256108129623
 11
30542.103698580013
 21
41880.256108129623
  0
LINE
  8
_0-0_
  6
CONTINUOUS
 62
    7
 10
29967.277526705016
 20
42159.306889379623
 11
30471.142761080013
 21
42063.455326879623
  0
LINE
  8
_0-0_
  6
CONTINUOUS
 62
    7
 10
29068.586120455013
 20
42430.255131567123
 11
28173.427917330013
 21
42384.543217504623
  0
LINE
  8
_0-0_
  6
CONTINUOUS
 62
    7
 10
28198.013854830016
 20
43301.756108129623
 11
28172.273620455009
 21
43405.400639379623
  0
LINE
  8
_0-0_
  6
CONTINUOUS
 62
    7
 10
28673.482604830009
 20
42310.081303442123
 11
29068.586120455013
 21
42330.258061254623
  0
LINE
  8
_0-0_
  6
CONTINUOUS
 62
    7
 10
24083.593932955009
 20
45478.149662817123
 11
24083.593932955009
 21
44430.257084692115
  0
LINE
  8
_0-0_
  6
CONTINUOUS
 62
    7
 10
24113.584167330013
 20
44430.257084692115
 11
24113.584167330013
 21
45477.073490942123
  0
LINE
  8
_0-0_
  6
CONTINUOUS
 62
    7
 10
24398.580261080009
 20
44380.259037817123
 11
24398.580261080009
 21
45157.534428442123
  0
LINE
  8
_0-0_
  6
CONTINUOUS
 62
    7
 10
23798.591979830009
 20
42680.259037817123
 11
23798.591979830009
 21
45830.254155004623
  0
LINE
  8
_0-0_
  6
CONTINUOUS
 62
    7
 10
23720.590026705013
 20
45830.254155004623
 11
23720.590026705013
 21
42680.259037817123
  0
LINE
  8
_0-0_
  6
CONTINUOUS
 62
    7
 10
23798.591979830009
 20
44380.259037817123
 11
24398.580261080009
 21
44380.259037817123
  0
LINE
  8
_0-0_
  6
CONTINUOUS
 62
    7
 10
24398.580261080009
 20
44430.257084692115
 11
23798.591979830009
 21
44430.257084692115
  0
LINE
  8
_0-0_
  6
CONTINUOUS
 62
    7
 10
24473.574401705009
 20
42453.606694067123
 11
24323.586120455009
 21
42453.606694067123
  0
LINE
  8
_0-0_
  6
CONTINUOUS
 62
    7
 10
28003.752136080009
 20
41566.087162817123
 11
27609.308776705013
 21
43155.570561254623
  0
LINE
  8
_0-0_
  6
CONTINUOUS
 62
    7
 10
27861.009948580009
 20
41726.137944067123
 11
27512.248229830009
 21
43131.468022192123
  0
LINE
  8
_0-0_
  6
CONTINUOUS
 62
    7
 10
28128.582214205009
 20
41426.115483129623
 11
28128.582214205009
 21
42337.351811254623
  0
LINE
  8
_0-0_
  6
CONTINUOUS
 62
    7
 10
26691.293151705009
 20
43037.638920629623
 11
27583.570495455013
 21
43259.218022192123
  0
LINE
  8
_0-0_
  6
CONTINUOUS
 62
    7
 10
26771.631042330013
 20
42947.552983129615
 11
27609.308776705013
 21
43155.570561254623
  0
LINE
  8
_0-0_
  6
CONTINUOUS
 62
    7
 10
27583.570495455013
 20
43259.218022192123
 11
27609.308776705013
 21
43155.570561254623
  0
LINE
  8
_0-0_
  6
CONTINUOUS
 62
    7
 10
27896.730651705013
 20
43234.318608129623
 11
27607.576354830009
 21
43162.518803442115
  0
LINE
  8
_0-0_
  6
CONTINUOUS
 62
    7
 10
27872.713073580009
 20
43331.010990942123
 11
27898.453307955016
 21
43227.373295629623
  0
LINE
  8
_0-0_
  6
CONTINUOUS
 62
    7
 10
27585.039245455009
 20
43253.260014379623
 11
27874.193542330009
 21
43325.061772192123
  0
LINE
  8
_0-0_
  6
CONTINUOUS
 62
    7
 10
25048.590026705009
 20
42200.250248754623
 11
25048.590026705009
 21
42130.259037817123
  0
LINE
  8
_0-0_
  6
CONTINUOUS
 62
    7
 10
24948.584167330009
 20
42270.258061254623
 11
24948.584167330009
 21
42200.250248754623
  0
LINE
  8
_0-0_
  6
CONTINUOUS
 62
    7
 10
27545.162292330009
 20
42080.252201879623
 11
27773.119323580009
 21
42080.252201879623
  0
LINE
  8
_0-0_
  6
CONTINUOUS
 62
    7
 10
27876.152526705009
 20
42080.252201879623
 11
28128.582214205009
 21
42080.252201879623
  0
LINE
  8
_0-0_
  6
CONTINUOUS
 62
    7
 10
27500.578307955009
 20
42130.259037817123
 11
27760.713073580013
 21
42130.259037817123
  0
LINE
  8
_0-0_
  6
CONTINUOUS
 62
    7
 10
27863.742370455009
 20
42130.259037817123
 11
28128.582214205009
 21
42130.259037817123
  0
LINE
  8
_0-0_
  6
CONTINUOUS
 62
    7
 10
24473.574401705009
 20
42490.350834692123
 11
24473.574401705009
 21
42270.258061254623
  0
LINE
  8
_0-0_
  6
CONTINUOUS
 62
    7
 10
23698.582214205013
 20
42075.256108129623
 11
24248.576354830013
 21
42075.256108129623
  0
LINE
  8
_0-0_
  6
CONTINUOUS
 62
    7
 10
24298.584167330009
 20
42025.258061254623
 11
24298.584167330009
 21
41965.259037817123
  0
LINE
  8
_0-0_
  6
CONTINUOUS
 62
    7
 10
23648.574401705009
 20
41965.259037817123
 11
23648.574401705009
 21
42025.258061254623
  0
LINE
  8
_0-0_
  6
CONTINUOUS
 62
    7
 10
24248.576354830013
 20
41915.259037817123
 11
23698.582214205013
 21
41915.259037817123
  0
LINE
  8
_0-0_
  6
CONTINUOUS
 62
    7
 10
24323.586120455009
 20
42270.258061254623
 11
24323.586120455009
 21
42490.350834692123
  0
LINE
  8
_0-0_
  6
CONTINUOUS
 62
    7
 10
23573.580261080009
 20
42490.350834692123
 11
23573.580261080009
 21
42270.258061254623
  0
LINE
  8
_0-0_
  6
CONTINUOUS
 62
    7
 10
23798.591979830009
 20
42270.258061254623
 11
23798.591979830009
 21
42575.258061254623
  0
LINE
  8
_0-0_
  6
CONTINUOUS
 62
    7
 10
23720.590026705013
 20
42575.258061254623
 11
23720.590026705013
 21
42270.258061254623
  0
LINE
  8
_0-0_
  6
CONTINUOUS
 62
    7
 10
23798.591979830009
 20
44980.259037817123
 11
24398.580261080009
 21
44980.259037817123
  0
LINE
  8
_0-0_
  6
CONTINUOUS
 62
    7
 10
24398.580261080009
 20
45030.266850317123
 11
23798.591979830009
 21
45030.266850317123
  0
LINE
  8
_0-0_
  6
CONTINUOUS
 62
    7
 10
24398.580261080009
 20
45630.256108129615
 11
23798.591979830009
 21
45630.256108129615
  0
LINE
  8
_0-0_
  6
CONTINUOUS
 62
    7
 10
24398.580261080009
 20
45580.256108129615
 11
23798.591979830009
 21
45580.256108129615
  0
LINE
  8
_0-0_
  6
CONTINUOUS
 62
    7
 10
24398.580261080009
 20
46230.256108129615
 11
23798.591979830009
 21
46230.256108129615
  0
LINE
  8
_0-0_
  6
CONTINUOUS
 62
    7
 10
24398.580261080009
 20
46180.256108129615
 11
23798.591979830009
 21
46180.256108129615
  0
LINE
  8
_0-0_
  6
CONTINUOUS
 62
    7
 10
24398.580261080009
 20
44768.887944067123
 11
24398.580261080009
 21
46219.250248754623
  0
LINE
  8
_0-0_
  6
CONTINUOUS
 62
    7
 10
24113.584167330013
 20
46354.025639379623
 11
24113.584167330013
 21
44953.661381567123
  0
LINE
  8
_0-0_
  6
CONTINUOUS
 62
    7
 10
24083.593932955009
 20
44954.203373754623
 11
24083.593932955009
 21
45961.422123754615
  0
LINE
  8
_0-0_
  6
CONTINUOUS
 62
    7
 10
23987.740417330009
 20
46068.885014379623
 11
23798.591979830009
 21
45900.164311254623
  0
LINE
  8
_0-0_
  6
CONTINUOUS
 62
    7
 10
23843.814636080013
 20
46230.256108129615
 11
23798.591979830009
 21
46280.963139379623
  0
LINE
  8
_0-0_
  6
CONTINUOUS
 62
    7
 10
24167.455261080013
 20
45867.383061254623
 11
24113.584167330013
 21
45819.334233129623
  0
LINE
  8
_0-0_
  6
CONTINUOUS
 62
    7
 10
24083.593932955009
 20
45792.572514379615
 11
23943.578307955013
 21
45667.691655004623
  0
LINE
  8
_0-0_
  6
CONTINUOUS
 62
    7
 10
24083.593932955009
 20
45961.422123754615
 11
23888.408386080013
 21
46180.256108129615
  0
LINE
  8
_0-0_
  6
CONTINUOUS
 62
    7
 10
23976.961120455009
 20
45630.256108129615
 11
23798.591979830009
 21
45830.254155004623
  0
LINE
  8
_0-0_
  6
CONTINUOUS
 62
    7
 10
24083.593932955009
 20
45510.713139379615
 11
24021.554870455013
 21
45580.256108129615
  0
LINE
  8
_0-0_
  6
CONTINUOUS
 62
    7
 10
24378.947448580013
 20
45630.256108129615
 11
24113.584167330013
 21
45927.785405004623
  0
LINE
  8
_0-0_
  6
CONTINUOUS
 62
    7
 10
25008.701354830013
 20
41860.256108129623
 11
25108.701354830013
 21
41910.256108129623
  0
LINE
  8
_0-0_
  6
CONTINUOUS
 62
    7
 10
25108.701354830013
 20
41910.256108129623
 11
25808.709167330016
 21
41910.256108129623
  0
LINE
  8
_0-0_
  6
CONTINUOUS
 62
    7
 10
25808.709167330016
 20
41910.256108129623
 11
25908.705261080013
 21
41860.256108129623
  0
LINE
  8
_0-0_
  6
CONTINUOUS
 62
    7
 10
25896.693542330013
 20
41836.259037817123
 11
25808.709167330016
 21
41880.256108129623
  0
LINE
  8
_0-0_
  6
CONTINUOUS
 62
    7
 10
25808.709167330016
 20
41880.256108129623
 11
25108.701354830013
 21
41880.256108129623
  0
LINE
  8
_0-0_
  6
CONTINUOUS
 62
    7
 10
25108.701354830013
 20
41880.256108129623
 11
25020.707214205013
 21
41836.259037817123
  0
LINE
  8
_0-0_
  6
CONTINUOUS
 62
    7
 10
25808.709167330016
 20
41810.258061254623
 11
25108.701354830013
 21
41810.258061254623
  0
LINE
  8
_0-0_
  6
CONTINUOUS
 62
    7
 10
25658.701354830009
 20
41210.258061254623
 11
25658.701354830009
 21
41610.260014379623
  0
LINE
  8
_0-0_
  6
CONTINUOUS
 62
    7
 10
25258.705261080009
 20
41610.260014379623
 11
25258.705261080009
 21
41210.258061254623
  0
LINE
  8
_0-0_
  6
CONTINUOUS
 62
    7
 10
25608.709167330016
 20
41660.260014379623
 11
25308.697448580009
 21
41660.260014379623
  0
LINE
  8
_0-0_
  6
CONTINUOUS
 62
    7
 10
26123.804870455013
 20
41915.259037817123
 11
26673.802917330009
 21
41915.259037817123
  0
LINE
  8
_0-0_
  6
CONTINUOUS
 62
    7
 10
26723.800964205009
 20
41965.259037817123
 11
26723.800964205009
 21
42025.258061254623
  0
LINE
  8
_0-0_
  6
CONTINUOUS
 62
    7
 10
26673.802917330009
 20
42075.256108129623
 11
26123.804870455013
 21
42075.256108129623
  0
LINE
  8
_0-0_
  6
CONTINUOUS
 62
    7
 10
26073.800964205009
 20
42025.258061254623
 11
26073.800964205009
 21
41965.259037817123
  0
LINE
  8
_0-0_
  6
CONTINUOUS
 62
    7
 10
21848.597839205009
 20
38980.259037817123
 11
21848.597839205009
 21
42382.260014379623
  0
LINE
  8
_0-0_
  6
CONTINUOUS
 62
    7
 10
21848.597839205009
 20
42382.260014379623
 11
21848.597839205009
 21
38980.259037817123
  0
LINE
  8
_0-0_
  6
CONTINUOUS
 62
    7
 10
22898.590026705009
 20
38980.259037817123
 11
22898.590026705009
 21
42382.260014379623
  0
LINE
  8
_0-0_
  6
CONTINUOUS
 62
    7
 10
22498.578307955009
 20
42182.254155004623
 11
22498.578307955009
 21
39280.253178442123
  0
LINE
  8
_0-0_
  6
CONTINUOUS
 62
    7
 10
23138.324401705009
 20
40680.257084692123
 11
23138.324401705009
 21
39865.257084692123
  0
LINE
  8
_0-0_
  6
CONTINUOUS
 62
    7
 10
23168.314636080013
 20
39865.257084692123
 11
23168.314636080013
 21
40680.257084692123
  0
LINE
  8
_0-0_
  6
CONTINUOUS
 62
    7
 10
22928.590026705009
 20
40530.259037817123
 11
22928.590026705009
 21
39865.257084692123
  0
LINE
  8
_0-0_
  6
CONTINUOUS
 62
    7
 10
22898.590026705009
 20
39865.257084692123
 11
22898.590026705009
 21
40560.259037817123
  0
LINE
  8
_0-0_
  6
CONTINUOUS
 62
    7
 10
22928.590026705009
 20
40310.255131567123
 11
23138.324401705009
 21
40310.255131567123
  0
LINE
  8
_0-0_
  6
CONTINUOUS
 62
    7
 10
23138.324401705009
 20
40280.256108129623
 11
22928.590026705009
 21
40280.256108129623
  0
LINE
  8
_0-0_
  6
CONTINUOUS
 62
    7
 10
22898.590026705009
 20
39830.254155004623
 11
22898.590026705009
 21
39865.257084692123
  0
LINE
  8
_0-0_
  6
CONTINUOUS
 62
    7
 10
22498.578307955009
 20
39280.253178442123
 11
22408.570495455009
 21
38980.259037817123
  0
LINE
  8
_0-0_
  6
CONTINUOUS
 62
    7
 10
21848.597839205009
 20
38980.259037817123
 11
22898.590026705009
 21
38980.259037817123
  0
LINE
  8
_0-0_
  6
CONTINUOUS
 62
    7
 10
22498.578307955009
 20
39280.253178442123
 11
22898.590026705009
 21
39280.253178442123
  0
LINE
  8
_0-0_
  6
CONTINUOUS
 62
    7
 10
23165.424011080009
 20
42825.260990942123
 11
23165.424011080009
 21
42130.259037817123
  0
LINE
  8
_0-0_
  6
CONTINUOUS
 62
    7
 10
23195.433776705013
 20
42130.259037817123
 11
23195.433776705013
 21
42795.254155004623
  0
LINE
  8
_0-0_
  6
CONTINUOUS
 62
    7
 10
22848.582214205013
 20
42680.259037817123
 11
22848.582214205013
 21
45830.254155004623
  0
LINE
  8
_0-0_
  6
CONTINUOUS
 62
    7
 10
22648.582214205013
 20
45830.254155004623
 11
22648.582214205013
 21
42680.259037817123
  0
LINE
  8
_0-0_
  6
CONTINUOUS
 62
    7
 10
21848.597839205009
 20
41482.257084692123
 11
22898.590026705009
 21
41482.257084692123
  0
LINE
  8
_0-0_
  6
CONTINUOUS
 62
    7
 10
22408.570495455009
 20
42382.260014379623
 11
22498.578307955009
 21
42182.254155004623
  0
LINE
  8
_0-0_
  6
CONTINUOUS
 62
    7
 10
22498.578307955009
 20
42182.254155004623
 11
22898.590026705009
 21
42182.254155004623
  0
LINE
  8
_0-0_
  6
CONTINUOUS
 62
    7
 10
23048.578307955009
 20
42130.259037817123
 11
23048.578307955009
 21
42200.250248754623
  0
LINE
  8
_0-0_
  6
CONTINUOUS
 62
    7
 10
23148.578307955009
 20
42200.250248754623
 11
23148.578307955009
 21
42270.258061254623
  0
LINE
  8
_0-0_
  6
CONTINUOUS
 62
    7
 10
22898.590026705009
 20
42382.260014379623
 11
21848.597839205009
 21
42382.260014379623
  0
LINE
  8
_0-0_
  6
CONTINUOUS
 62
    7
 10
23423.582214205013
 20
42270.258061254623
 11
23423.582214205013
 21
42490.350834692123
  0
LINE
  8
_0-0_
  6
CONTINUOUS
 62
    7
 10
21924.824401705009
 20
42560.253178442123
 11
21848.455261080013
 21
42680.259037817123
  0
LINE
  8
_0-0_
  6
CONTINUOUS
 62
    7
 10
22848.582214205013
 20
42382.260014379623
 11
22848.582214205013
 21
42560.253178442123
  0
LINE
  8
_0-0_
  6
CONTINUOUS
 62
    7
 10
22648.582214205013
 20
42560.253178442123
 11
22648.582214205013
 21
42382.260014379623
  0
LINE
  8
_0-0_
  6
CONTINUOUS
 62
    7
 10
22848.582214205013
 20
46330.260014379623
 11
22848.582214205013
 21
45960.252201879623
  0
LINE
  8
_0-0_
  6
CONTINUOUS
 62
    7
 10
22648.582214205013
 20
45960.252201879623
 11
22648.582214205013
 21
46330.260014379623
  0
LINE
  8
_0-0_
  6
CONTINUOUS
 62
    7
 10
21898.576354830013
 20
45905.256108129615
 11
21898.576354830013
 21
45830.254155004623
  0
LINE
  8
_0-0_
  6
CONTINUOUS
 62
    7
 10
23113.580261080009
 20
46330.260014379623
 11
21933.584167330009
 21
46330.260014379623
  0
LINE
  8
_0-0_
  6
CONTINUOUS
 62
    7
 10
21933.584167330009
 20
46365.258061254623
 11
23113.580261080009
 21
46365.258061254623
  0
LINE
  8
_0-0_
  6
CONTINUOUS
 62
    7
 10
22482.252136080009
 20
47794.412358129623
 11
23680.246276705013
 21
46451.205326879623
  0
LINE
  8
_0-0_
  6
CONTINUOUS
 62
    7
 10
23798.591979830009
 20
46830.252201879623
 11
24398.580261080009
 21
46830.252201879623
  0
LINE
  8
_0-0_
  6
CONTINUOUS
 62
    7
 10
24398.580261080009
 20
46780.254155004623
 11
23798.591979830009
 21
46780.254155004623
  0
LINE
  8
_0-0_
  6
CONTINUOUS
 62
    7
 10
23720.590026705013
 20
47080.258061254623
 11
23798.591979830009
 21
47080.258061254623
  0
LINE
  8
_0-0_
  6
CONTINUOUS
 62
    7
 10
22221.058776705009
 20
47561.449467504623
 11
22613.904479830009
 21
46760.070561254623
  0
LINE
  8
_0-0_
  6
CONTINUOUS
 62
    7
 10
21898.576354830013
 20
46830.252201879623
 11
23148.578307955009
 21
46830.252201879623
  0
LINE
  8
_0-0_
  6
CONTINUOUS
 62
    7
 10
21898.576354830013
 20
46795.260014379615
 11
23148.578307955009
 21
46795.260014379615
  0
LINE
  8
_0-0_
  6
CONTINUOUS
 62
    7
 10
22221.058776705009
 20
47561.449467504623
 11
22482.252136080009
 21
47794.412358129623
  0
LINE
  8
_0-0_
  6
CONTINUOUS
 62
    7
 10
31048.588073580016
 20
39865.257084692123
 11
31048.588073580016
 21
40710.257084692123
  0
LINE
  8
_0-0_
  6
CONTINUOUS
 62
    7
 10
49205.257018892516
 20
48315.552983129623
 11
51381.737609712822
 21
50380.236576879623
  0
LINE
  8
_0-0_
  6
CONTINUOUS
 62
    7
 10
50444.069518892516
 20
47009.660405004623
 11
52620.550018160087
 21
49074.353764379623
  0
LINE
  8
_0-0_
  6
CONTINUOUS
 62
    7
 10
52531.075805513603
 20
49168.658451879623
 11
50354.595153658134
 21
47103.974858129615
  0
LINE
  8
_0-0_
  6
CONTINUOUS
 62
    7
 10
49294.731384126884
 20
48221.238530004623
 11
51471.211852876891
 21
50285.931889379615
  0
LINE
  8
_0-0_
  6
CONTINUOUS
 62
    7
 10
50299.534850923759
 20
49174.443608129623
 11
50936.148010103447
 21
47655.662358129623
  0
LINE
  8
_0-0_
  6
CONTINUOUS
 62
    7
 10
50873.318054048766
 20
47596.066655004623
 11
50236.714782564391
 21
49114.843998754623
  0
LINE
  8
_0-0_
  6
CONTINUOUS
 62
    7
 10
57060.580261080009
 20
53286.30884250463
 11
62827.086120455009
 21
59645.283451879615
  0
LINE
  8
_0-0_
  6
CONTINUOUS
 62
    7
 10
61848.204284517509
 20
59504.20923312963
 11
55821.757995455002
 21
54592.19165500463
  0
LINE
  8
_0-0_
  6
CONTINUOUS
 62
    7
 10
61478.618347017502
 20
58262.470951879615
 11
62825.927917330009
 21
59748.215092504623
  0
LINE
  8
_0-0_
  6
CONTINUOUS
 62
    7
 10
61023.774108736259
 20
58741.92603000463
 11
61798.914245455009
 21
59373.728764379623
  0
LINE
  8
_0-0_
  6
CONTINUOUS
 62
    7
 10
63145.847839205009
 20
59597.97876437963
 11
65355.079284517509
 21
59910.64868625463
  0
LINE
  8
_0-0_
  6
CONTINUOUS
 62
    7
 10
63112.958190767516
 20
59993.238530004623
 11
65343.469909517509
 21
60050.164311254615
  0
LINE
  8
_0-0_
  6
CONTINUOUS
 62
    7
 10
63102.159362642509
 20
60122.78345187963
 11
65332.680847017516
 21
60179.709233129623
  0
LINE
  8
_0-0_
  6
CONTINUOUS
 62
    7
 10
63156.635925142516
 20
59468.433842504623
 11
65365.868347017509
 21
59781.08813937963
  0
LINE
  8
_0-0_
  6
CONTINUOUS
 62
    7
 10
64366.883972017516
 20
60025.242436254623
 11
64387.827331392509
 21
59773.750248754615
  0
LINE
  8
_0-0_
  6
CONTINUOUS
 62
    7
 10
65332.680847017516
 20
60179.709233129623
 11
65343.469909517509
 21
60050.164311254615
  0
LINE
  8
_0-0_
  6
CONTINUOUS
 62
    7
 10
65355.079284517509
 20
59910.64868625463
 11
65365.868347017509
 21
59781.08813937963
  0
LINE
  8
_0-0_
  6
CONTINUOUS
 62
    7
 10
65343.469909517509
 20
60050.164311254615
 11
65355.079284517509
 21
59910.64868625463
  0
LINE
  8
_0-0_
  6
CONTINUOUS
 62
    7
 10
65514.390807955009
 20
59802.115483129623
 11
65332.680847017516
 21
60179.709233129623
  0
LINE
  8
_0-0_
  6
CONTINUOUS
 62
    7
 10
64676.262878267516
 20
60033.14087375463
 11
64694.247253267509
 21
59817.115483129623
  0
LINE
  8
_0-0_
  6
CONTINUOUS
 62
    7
 10
62499.248229830002
 20
59968.213139379623
 11
62442.455261080009
 21
60035.886967504623
  0
LINE
  8
_0-0_
  6
CONTINUOUS
 62
    7
 10
62442.455261080009
 20
60035.886967504623
 11
62918.470886080016
 21
60435.314701879623
  0
LINE
  8
_0-0_
  6
CONTINUOUS
 62
    7
 10
62918.470886080016
 20
60435.314701879623
 11
62963.900573580009
 21
60381.164311254623
  0
LINE
  8
_0-0_
  6
CONTINUOUS
 62
    7
 10
62963.900573580009
 20
60381.164311254623
 11
62487.885925142516
 21
59981.74829562963
  0
LINE
  8
_0-0_
  6
CONTINUOUS
 62
    7
 10
62497.604675142509
 20
59966.842045629615
 11
62635.340026705009
 21
59755.627201879623
  0
LINE
  8
_0-0_
  6
CONTINUOUS
 62
    7
 10
62635.340026705009
 20
59755.627201879623
 11
62675.939636080009
 21
59789.699467504623
  0
LINE
  8
_0-0_
  6
CONTINUOUS
 62
    7
 10
62675.939636080009
 20
59789.699467504623
 11
62528.495300142516
 21
60015.820561254623
  0
LINE
  8
_0-0_
  6
CONTINUOUS
 62
    7
 10
62857.877136080016
 20
60292.201420629623
 11
62631.034362642516
 21
59861.892826879623
  0
LINE
  8
_0-0_
  6
CONTINUOUS
 62
    7
 10
62661.300964205009
 20
59812.158451879623
 11
62963.900573580009
 21
60381.164311254623
  0
LINE
  8
_0-0_
  6
CONTINUOUS
 62
    7
 10
62499.248229830002
 20
59968.213139379623
 11
61465.988464205009
 21
59101.21313937963
  0
LINE
  8
_0-0_
  6
CONTINUOUS
 62
    7
 10
61465.988464205009
 20
59101.21313937963
 11
61262.959167330016
 21
58930.84595187963
  0
LINE
  8
_0-0_
  6
CONTINUOUS
 62
    7
 10
62309.194518892516
 20
58628.845951879623
 11
63033.559753267516
 21
59427.64087375463
  0
LINE
  8
_0-0_
  6
CONTINUOUS
 62
    7
 10
62309.194518892516
 20
58628.845951879623
 11
61789.055847017516
 21
58604.799076879623
  0
LINE
  8
_0-0_
  6
CONTINUOUS
 62
    7
 10
62827.086120455009
 20
59645.283451879615
 11
62825.927917330009
 21
59748.215092504623
  0
LINE
  8
_0-0_
  6
CONTINUOUS
 62
    7
 10
62430.805847017516
 20
60015.636967504623
 11
61861.872253267509
 21
59757.685795629615
  0
LINE
  8
_0-0_
  6
CONTINUOUS
 62
    7
 10
61836.030456392516
 20
59693.74243625463
 11
61897.592956392509
 21
59538.162358129623
  0
LINE
  8
_0-0_
  6
CONTINUOUS
 62
    7
 10
61975.674987642516
 20
59517.793217504615
 11
62483.035339205016
 21
59931.33423312963
  0
LINE
  8
_0-0_
  6
CONTINUOUS
 62
    7
 10
61798.914245455009
 20
59373.728764379623
 11
61878.886901705002
 21
59585.443608129615
  0
LINE
  8
_0-0_
  6
CONTINUOUS
 62
    7
 10
62309.996276705009
 20
60090.24438937963
 11
62334.927917330016
 21
59972.166264379623
  0
LINE
  8
_0-0_
  6
CONTINUOUS
 62
    7
 10
62443.861511080016
 20
60150.976811254623
 11
62825.927917330009
 21
59748.215092504623
  0
LINE
  8
_0-0_
  6
CONTINUOUS
 62
    7
 10
62201.063659517516
 20
58954.94165500463
 11
62425.402526705009
 21
58896.570561254623
  0
LINE
  8
_0-0_
  6
CONTINUOUS
 62
    7
 10
62536.927917330016
 20
59325.314701879623
 11
62605.775573580016
 21
59059.900639379623
  0
LINE
  8
_0-0_
  6
CONTINUOUS
 62
    7
 10
62427.530456392516
 20
59078.42407687963
 11
62516.924987642502
 21
58984.18970187963
  0
LINE
  8
_0-0_
  6
CONTINUOUS
 62
    7
 10
62425.115417330016
 20
58986.60376437963
 11
62519.349792330016
 21
59076.004155004623
  0
LINE
  8
_0-0_
  6
CONTINUOUS
 62
    7
 10
63033.559753267516
 20
59427.64087375463
 11
62827.086120455009
 21
59645.283451879615
  0
LINE
  8
_0-0_
  6
CONTINUOUS
 62
    7
 10
62994.038268892516
 20
59469.29517062963
 11
63033.421081392509
 21
59472.576420629615
  0
LINE
  8
_0-0_
  6
CONTINUOUS
 62
    7
 10
63079.078307955009
 20
59526.81079562963
 11
63035.321472017516
 21
60052.39673312963
  0
LINE
  8
_0-0_
  6
CONTINUOUS
 62
    7
 10
62981.340026705016
 20
60098.074467504623
 11
62529.703307955016
 21
60060.48267062963
  0
LINE
  8
_0-0_
  6
CONTINUOUS
 62
    7
 10
63102.159362642509
 20
60122.78345187963
 11
63112.958190767516
 21
59993.238530004623
  0
LINE
  8
_0-0_
  6
CONTINUOUS
 62
    7
 10
63145.847839205009
 20
59597.97876437963
 11
63156.635925142516
 21
59468.433842504623
  0
LINE
  8
_0-0_
  6
CONTINUOUS
 62
    7
 10
63250.554870455016
 20
59996.75806125463
 11
63282.137878267509
 21
59617.273686254623
  0
LINE
  8
_0-0_
  6
CONTINUOUS
 62
    7
 10
63170.582214205009
 20
59994.722905004615
 11
63202.926940767509
 21
59606.054936254623
  0
LINE
  8
_0-0_
  6
CONTINUOUS
 62
    7
 10
63777.432800142516
 20
60010.19751437963
 11
63803.988464205009
 21
59691.129155004623
  0
LINE
  8
_0-0_
  6
CONTINUOUS
 62
    7
 10
63857.405456392509
 20
60012.24243625463
 11
63883.208190767502
 21
59702.32837375463
  0
LINE
  8
_0-0_
  6
CONTINUOUS
 62
    7
 10
53558.21826156829
 20
52444.924076879623
 11
55734.698913423766
 21
54509.605717504623
  0
LINE
  8
_0-0_
  6
CONTINUOUS
 62
    7
 10
54797.040466158134
 20
51139.031498754623
 11
56973.521179048759
 21
53203.718998754615
  0
LINE
  8
_0-0_
  6
CONTINUOUS
 62
    7
 10
56884.046813814391
 20
53298.031498754623
 11
54707.556335298759
 21
51233.349858129623
  0
LINE
  8
_0-0_
  6
CONTINUOUS
 62
    7
 10
53647.682556001884
 20
52350.605717504615
 11
55824.173034517516
 21
54415.293217504623
  0
LINE
  8
_0-0_
  6
CONTINUOUS
 62
    7
 10
55668.186950533141
 20
54267.322514379623
 11
56304.800231783134
 21
52748.537358129623
  0
LINE
  8
_0-0_
  6
CONTINUOUS
 62
    7
 10
55605.366882173759
 20
54207.734623754615
 11
56241.989929048759
 21
52688.943608129623
  0
LINE
  8
_0-0_
  6
CONTINUOUS
 62
    7
 10
55876.442321626884
 20
53561.051030004615
 11
55244.926452486266
 21
53865.806889379623
  0
LINE
  8
_0-0_
  6
CONTINUOUS
 62
    7
 10
55923.673522798766
 20
53448.342045629623
 11
55182.106384126884
 21
53806.209233129615
  0
LINE
  8
_0-0_
  6
CONTINUOUS
 62
    7
 10
56971.106139986259
 20
53380.617436254623
 11
60521.125182955009
 21
57295.715092504623
  0
LINE
  8
_0-0_
  6
CONTINUOUS
 62
    7
 10
57060.580261080009
 20
53286.30884250463
 11
55821.757995455002
 21
54592.19165500463
  0
LINE
  8
_0-0_
  6
CONTINUOUS
 62
    7
 10
55973.408874361259
 20
54548.562748754623
 11
57024.988464205009
 21
53440.047123754615
  0
LINE
  8
_0-0_
  6
CONTINUOUS
 62
    7
 10
55985.078307955016
 20
54558.064701879615
 11
57430.146667330016
 21
53886.875248754623
  0
LINE
  8
_0-0_
  6
CONTINUOUS
 62
    7
 10
57486.434264986266
 20
53948.941655004615
 11
56050.382507173766
 21
54611.279545629623
  0
LINE
  8
_0-0_
  6
CONTINUOUS
 62
    7
 10
56268.456237642509
 20
54426.451420629623
 11
57112.562682955016
 21
53536.623295629623
  0
LINE
  8
_0-0_
  6
CONTINUOUS
 62
    7
 10
57166.454772798759
 20
53596.062748754615
 11
56465.576598970641
 21
54334.894780004615
  0
LINE
  8
_0-0_
  6
CONTINUOUS
 62
    7
 10
58595.796081392516
 20
55172.394780004615
 11
58286.882018892516
 21
56434.045170629623
  0
LINE
  8
_0-0_
  6
CONTINUOUS
 62
    7
 10
57191.713561861266
 20
55541.48462375463
 11
58557.165710298759
 21
55129.779545629615
  0
LINE
  8
_0-0_
  6
CONTINUOUS
 62
    7
 10
57111.513366548766
 20
55476.10571750463
 11
58495.860046236259
 21
55062.179936254623
  0
LINE
  8
_0-0_
  6
CONTINUOUS
 62
    7
 10
57571.682311861266
 20
54042.965092504615
 11
57067.498718111252
 21
55440.236576879623
  0
LINE
  8
_0-0_
  6
CONTINUOUS
 62
    7
 10
57509.129089205009
 20
53973.97876437963
 11
56997.107116548759
 21
55382.87134250463
  0
LINE
  8
_0-0_
  6
CONTINUOUS
 62
    7
 10
56738.948181001891
 20
53160.386967504623
 11
55679.074401705009
 21
54277.646733129623
  0
LINE
  8
_0-0_
  6
CONTINUOUS
 62
    7
 10
56728.060729830009
 20
53150.062748754623
 11
55986.503600923766
 21
53507.93970187963
  0
LINE
  8
_0-0_
  6
CONTINUOUS
 62
    7
 10
56665.250671236266
 20
53090.468998754623
 11
56033.734802095634
 21
53395.226811254623
  0
LINE
  8
_0-0_
  6
CONTINUOUS
 62
    7
 10
55793.678649751884
 20
53967.951420629615
 11
56435.705749361259
 21
53291.148686254623
  0
LINE
  8
_0-0_
  6
CONTINUOUS
 62
    7
 10
56886.452087251884
 20
53121.133061254623
 11
55647.649597017516
 21
54427.025639379623
  0
LINE
  8
_0-0_
  6
CONTINUOUS
 62
    7
 10
56884.046813814391
 20
53298.031498754623
 11
56971.106139986259
 21
53380.617436254623
  0
LINE
  8
_0-0_
  6
CONTINUOUS
 62
    7
 10
56973.521179048759
 20
53203.718998754615
 11
57060.580261080009
 21
53286.30884250463
  0
LINE
  8
_0-0_
  6
CONTINUOUS
 62
    7
 10
56586.584655611259
 20
53015.851811254615
 11
56389.642272798752
 21
53223.463139379623
  0
LINE
  8
_0-0_
  6
CONTINUOUS
 62
    7
 10
56593.018005220641
 20
53125.324467504615
 11
56644.643981783134
 21
53070.916264379615
  0
LINE
  8
_0-0_
  6
CONTINUOUS
 62
    7
 10
55911.232360689384
 20
54497.877201879623
 11
60007.934753267509
 21
57836.697514379623
  0
LINE
  8
_0-0_
  6
CONTINUOUS
 62
    7
 10
58484.675475923766
 20
56595.236576879623
 11
59585.099792330016
 21
56263.439701879623
  0
LINE
  8
_0-0_
  6
CONTINUOUS
 62
    7
 10
55832.209899751891
 20
54658.742436254623
 11
55860.625915376884
 21
54623.873295629615
  0
LINE
  8
_0-0_
  6
CONTINUOUS
 62
    7
 10
55734.698913423766
 20
54509.605717504623
 11
55821.757995455002
 21
54592.19165500463
  0
LINE
  8
_0-0_
  6
CONTINUOUS
 62
    7
 10
55911.232360689384
 20
54497.877201879623
 11
55824.173034517516
 21
54415.293217504623
  0
LINE
  8
_0-0_
  6
CONTINUOUS
 62
    7
 10
55948.486755220641
 20
54753.511967504615
 11
55976.902770845641
 21
54718.642826879623
  0
LINE
  8
_0-0_
  6
CONTINUOUS
 62
    7
 10
56074.483093111259
 20
54630.935795629623
 11
56126.346618501884
 21
54576.246342504623
  0
LINE
  8
_0-0_
  6
CONTINUOUS
 62
    7
 10
56322.398132173759
 20
54485.822514379615
 11
56136.669860689377
 21
54681.607670629615
  0
LINE
  8
_0-0_
  6
CONTINUOUS
 62
    7
 10
58404.772155611259
 20
56530.121342504615
 11
59523.576354830016
 21
56195.582280004623
  0
LINE
  8
_0-0_
  6
CONTINUOUS
 62
    7
 10
58662.644225923759
 20
55246.125248754615
 11
58360.183776705016
 21
56493.78149875463
  0
LINE
  8
_0-0_
  6
CONTINUOUS
 62
    7
 10
61390.103698580016
 20
58254.06274875463
 11
61478.618347017502
 21
58262.470951879615
  0
LINE
  8
_0-0_
  6
CONTINUOUS
 62
    7
 10
61390.103698580016
 20
58254.06274875463
 11
61010.729186861259
 21
58653.980717504623
  0
LINE
  8
_0-0_
  6
CONTINUOUS
 62
    7
 10
61010.729186861259
 20
58653.980717504623
 11
61023.774108736259
 21
58741.92603000463
  0
LINE
  8
_0-0_
  6
CONTINUOUS
 62
    7
 10
61023.774108736259
 20
58741.92603000463
 11
61478.618347017502
 21
58262.470951879615
  0
LINE
  8
_0-0_
  6
CONTINUOUS
 62
    7
 10
60608.689147798759
 20
57392.29517062963
 11
60108.979186861259
 21
57919.064701879623
  0
LINE
  8
_0-0_
  6
CONTINUOUS
 62
    7
 10
60007.934753267509
 20
57836.697514379623
 11
60521.125182955009
 21
57295.715092504623
  0
LINE
  8
_0-0_
  6
CONTINUOUS
 62
    7
 10
60608.689147798759
 20
57392.29517062963
 11
61390.103698580016
 21
58254.06274875463
  0
LINE
  8
_0-0_
  6
CONTINUOUS
 62
    7
 10
60108.979186861259
 20
57919.064701879623
 11
61010.729186861259
 21
58653.980717504623
  0
LINE
  8
_0-0_
  6
CONTINUOUS
 62
    7
 10
59533.731139986266
 20
57450.23071750463
 11
60110.206725923766
 21
56842.543217504623
  0
LINE
  8
_0-0_
  6
CONTINUOUS
 62
    7
 10
60056.324401705009
 20
56783.123295629615
 11
59471.554870455009
 21
57399.554936254615
  0
LINE
  8
_0-0_
  6
CONTINUOUS
 62
    7
 10
59636.646667330009
 20
57534.103764379623
 11
60500.973327486259
 21
57273.504155004615
  0
LINE
  8
_0-0_
  6
CONTINUOUS
 62
    7
 10
59556.980651705009
 20
57469.179936254623
 11
60439.222350923759
 21
57205.394780004623
  0
LINE
  8
_0-0_
  6
CONTINUOUS
 62
    7
 10
59690.845886080009
 20
56380.06274875463
 11
59448.295104830016
 21
57380.59595187963
  0
LINE
  8
_0-0_
  6
CONTINUOUS
 62
    7
 10
59623.750182955016
 20
56306.05884250463
 11
59375.221374361266
 21
57321.03735812963
  0
LINE
  8
_0-0_
  6
CONTINUOUS
 62
    7
 10
55584.760192720634
 20
54188.181889379623
 11
55636.376159517509
 21
54133.76978000463
  0
LINE
  8
_0-0_
  6
CONTINUOUS
 62
    7
 10
56232.339782564384
 20
53389.28735812963
 11
55880.975280611252
 21
53759.679936254623
  0
LINE
  8
_0-0_
  6
CONTINUOUS
 62
    7
 10
55723.673034517516
 20
53925.504155004615
 11
55526.720641939391
 21
54133.117436254623
  0
LINE
  8
_0-0_
  6
CONTINUOUS
 62
    7
 10
55580.395446626877
 20
54425.25024875463
 11
55611.374938814391
 21
54392.611576879623
  0
LINE
  8
_0-0_
  6
CONTINUOUS
 62
    7
 10
55471.581237642509
 20
54322.021733129623
 11
55502.540954439384
 21
54289.369389379623
  0
LINE
  8
_0-0_
  6
CONTINUOUS
 62
    7
 10
52385.986999361259
 20
49031.013920629615
 11
51326.113220064384
 21
50148.291264379623
  0
LINE
  8
_0-0_
  6
CONTINUOUS
 62
    7
 10
51315.225890962822
 20
50137.959233129615
 11
51951.838989107353
 21
48619.177983129623
  0
LINE
  8
_0-0_
  6
CONTINUOUS
 62
    7
 10
51252.415710298759
 20
50078.365483129615
 11
51889.009094087829
 21
48559.584233129623
  0
LINE
  8
_0-0_
  6
CONTINUOUS
 62
    7
 10
51867.254211275329
 20
48538.937748754623
 11
50384.129577486259
 21
49254.677983129623
  0
LINE
  8
_0-0_
  6
CONTINUOUS
 62
    7
 10
50321.299743501884
 20
49195.084233129623
 11
51804.424255220634
 21
48479.349858129623
  0
LINE
  8
_0-0_
  6
CONTINUOUS
 62
    7
 10
52375.099609224548
 20
49020.693608129623
 11
51633.522521822204
 21
49378.562748754623
  0
LINE
  8
_0-0_
  6
CONTINUOUS
 62
    7
 10
51440.707458345641
 20
49838.580326879623
 11
52082.754455415939
 21
49161.779545629623
  0
LINE
  8
_0-0_
  6
CONTINUOUS
 62
    7
 10
51879.368835298759
 20
49259.924076879623
 11
51528.014221040954
 21
49630.320561254623
  0
LINE
  8
_0-0_
  6
CONTINUOUS
 62
    7
 10
52533.480895845641
 20
48991.763920629623
 11
51294.668517915939
 21
50297.650639379615
  0
LINE
  8
_0-0_
  6
CONTINUOUS
 62
    7
 10
54652.496032564384
 20
53303.806889379623
 11
55289.109313814391
 21
51785.021733129623
  0
LINE
  8
_0-0_
  6
CONTINUOUS
 62
    7
 10
55226.289245455016
 20
51725.433842504615
 11
54589.685973970634
 21
53244.209233129615
  0
LINE
  8
_0-0_
  6
CONTINUOUS
 62
    7
 10
51468.796935884697
 20
50462.832280004623
 11
52707.609252779228
 21
49156.943608129623
  0
LINE
  8
_0-0_
  6
CONTINUOUS
 62
    7
 10
52676.174499361266
 20
49306.312748754623
 11
51616.310607759704
 21
50423.568608129623
  0
LINE
  8
_0-0_
  6
CONTINUOUS
 62
    7
 10
51627.188049165939
 20
50433.896733129623
 11
53110.312591402268
 21
49718.150639379623
  0
LINE
  8
_0-0_
  6
CONTINUOUS
 62
    7
 10
51690.008117525329
 20
50493.494389379623
 11
53173.142516939391
 21
49777.740483129623
  0
LINE
  8
_0-0_
  6
CONTINUOUS
 62
    7
 10
53194.897430269462
 20
49798.388920629623
 11
52558.294158785087
 21
51317.172123754623
  0
LINE
  8
_0-0_
  6
CONTINUOUS
 62
    7
 10
52621.124084322197
 20
51376.765873754615
 11
53257.727325289001
 21
49857.990483129615
  0
LINE
  8
_0-0_
  6
CONTINUOUS
 62
    7
 10
52642.878997652282
 20
51397.412358129623
 11
54126.013488619072
 21
50681.672123754615
  0
LINE
  8
_0-0_
  6
CONTINUOUS
 62
    7
 10
54188.833434908134
 20
50741.271733129623
 11
52705.708923189391
 21
51457.006108129623
  0
LINE
  8
_0-0_
  6
CONTINUOUS
 62
    7
 10
54210.598205415954
 20
50761.908451879615
 11
53573.994994966735
 21
52280.69360812963
  0
LINE
  8
_0-0_
  6
CONTINUOUS
 62
    7
 10
53636.815002290954
 20
52340.281498754623
 11
54273.418273775329
 21
50821.506108129623
  0
LINE
  8
_0-0_
  6
CONTINUOUS
 62
    7
 10
55204.524352876891
 20
51704.781498754615
 11
53721.389953462822
 21
52420.525639379615
  0
LINE
  8
_0-0_
  6
CONTINUOUS
 62
    7
 10
53658.56994613861
 20
52360.933842504615
 11
55141.704284517502
 21
51645.189701879623
  0
LINE
  8
_0-0_
  6
CONTINUOUS
 62
    7
 10
51919.543151705009
 20
50292.816655004615
 11
52770.498550264587
 21
49395.777592504623
  0
LINE
  8
_0-0_
  6
CONTINUOUS
 62
    7
 10
52828.538040010673
 20
49450.838139379615
 11
52122.908996431579
 21
50194.666264379623
  0
LINE
  8
_0-0_
  6
CONTINUOUS
 62
    7
 10
56220.215270845641
 20
52668.302983129615
 11
54737.090759126884
 21
53384.047123754623
  0
LINE
  8
_0-0_
  6
CONTINUOUS
 62
    7
 10
54674.270812837822
 20
53324.449467504623
 11
56157.395202486259
 21
52608.705326879623
  0
LINE
  8
_0-0_
  6
CONTINUOUS
 62
    7
 10
52233.633361665939
 20
48886.500248754623
 11
52036.681152193298
 21
49094.099858129615
  0
LINE
  8
_0-0_
  6
CONTINUOUS
 62
    7
 10
52240.046996919853
 20
48995.949467504623
 11
52291.662902681572
 21
48941.543217504623
  0
LINE
  8
_0-0_
  6
CONTINUOUS
 62
    7
 10
52312.279601900322
 20
48961.105717504623
 11
51680.773620455009
 21
49265.851811254615
  0
LINE
  8
_0-0_
  6
CONTINUOUS
 62
    7
 10
52620.550018160087
 20
49074.353764379623
 11
54797.040466158134
 21
51139.031498754623
  0
LINE
  8
_0-0_
  6
CONTINUOUS
 62
    7
 10
52531.075805513603
 20
49168.658451879623
 11
54707.556335298759
 21
51233.349858129623
  0
LINE
  8
_0-0_
  6
CONTINUOUS
 62
    7
 10
51523.471130220641
 20
49431.681889379623
 11
50891.965270845641
 21
49736.443608129623
  0
LINE
  8
_0-0_
  6
CONTINUOUS
 62
    7
 10
51570.702453462822
 20
49318.974858129623
 11
50829.145202486259
 21
49676.847905004623
  0
LINE
  8
_0-0_
  6
CONTINUOUS
 62
    7
 10
51231.799011080009
 20
50058.806889379623
 11
51283.405090181579
 21
50004.394780004623
  0
LINE
  8
_0-0_
  6
CONTINUOUS
 62
    7
 10
51370.701843111259
 20
49796.135014379623
 11
51173.749694673759
 21
50003.752201879623
  0
LINE
  8
_0-0_
  6
CONTINUOUS
 62
    7
 10
51227.434142915947
 20
50295.894780004615
 11
51258.403747408134
 21
50263.248295629623
  0
LINE
  8
_0-0_
  6
CONTINUOUS
 62
    7
 10
51118.610168306579
 20
50192.652592504623
 11
51149.579772798759
 21
50160.006108129615
  0
LINE
  8
_0-0_
  6
CONTINUOUS
 62
    7
 10
51381.737609712822
 20
50380.236576879623
 11
53558.21826156829
 21
52444.924076879623
  0
LINE
  8
_0-0_
  6
CONTINUOUS
 62
    7
 10
53647.682556001884
 20
52350.605717504615
 11
51471.211852876891
 21
50285.931889379615
  0
LINE
  8
_0-0_
  6
CONTINUOUS
 62
    7
 10
51474.092101900329
 20
50529.888920629623
 11
51505.081481783134
 21
50497.240483129623
  0
LINE
  8
_0-0_
  6
CONTINUOUS
 62
    7
 10
51710.614806978447
 20
50513.043217504623
 11
51762.240661470641
 21
50458.631108129623
  0
LINE
  8
_0-0_
  6
CONTINUOUS
 62
    7
 10
51965.606567232353
 20
50360.486576879623
 11
51768.654357759704
 21
50568.103764379623
  0
LINE
  8
_0-0_
  6
CONTINUOUS
 62
    7
 10
51582.925964205016
 20
50633.119389379623
 11
51613.895568697197
 21
50600.472905004623
  0
LINE
  8
_0-0_
  6
CONTINUOUS
 62
    7
 10
41651.068542330009
 20
38668.345951879623
 11
38326.580261080009
 21
36483.821537817123
  0
LINE
  8
_0-0_
  6
CONTINUOUS
 62
    7
 10
38468.754089205016
 20
37111.821537817123
 11
40423.534362642509
 21
39773.452397192123
  0
LINE
  8
_0-0_
  6
CONTINUOUS
 62
    7
 10
38690.237487642516
 20
36878.332280004623
 11
41451.166198580009
 21
38690.182865942123
  0
LINE
  8
_0-0_
  6
CONTINUOUS
 62
    7
 10
42675.805847017509
 20
42121.507084692123
 11
44852.296081392509
 21
44186.189701879615
  0
LINE
  8
_0-0_
  6
CONTINUOUS
 62
    7
 10
43914.617370455009
 20
40815.611576879623
 11
46091.098327486259
 21
42880.296147192123
  0
LINE
  8
_0-0_
  6
CONTINUOUS
 62
    7
 10
46001.624206392509
 20
42974.610600317123
 11
43825.143737642509
 21
40909.930912817123
  0
LINE
  8
_0-0_
  6
CONTINUOUS
 62
    7
 10
42765.269714205009
 20
42027.188725317123
 11
44941.770202486259
 21
44091.878178442115
  0
LINE
  8
_0-0_
  6
CONTINUOUS
 62
    7
 10
44785.774108736259
 20
43943.896733129623
 11
45422.387389986259
 21
42425.118412817123
  0
LINE
  8
_0-0_
  6
CONTINUOUS
 62
    7
 10
44722.954284517509
 20
43884.315678442123
 11
45359.567077486259
 21
42365.532475317123
  0
LINE
  8
_0-0_
  6
CONTINUOUS
 62
    7
 10
45782.818054048759
 20
42767.052983129623
 11
45151.312194673759
 21
43071.804936254623
  0
LINE
  8
_0-0_
  6
CONTINUOUS
 62
    7
 10
46146.732604830016
 20
43112.266850317123
 11
45086.859069673759
 21
44229.521733129623
  0
LINE
  8
_0-0_
  6
CONTINUOUS
 62
    7
 10
46178.147643892509
 20
42962.877201879623
 11
44939.345397798766
 21
44268.775639379623
  0
LINE
  8
_0-0_
  6
CONTINUOUS
 62
    7
 10
45097.736511080009
 20
44239.840092504615
 11
46534.074889986259
 21
43479.714115942123
  0
LINE
  8
_0-0_
  6
CONTINUOUS
 62
    7
 10
45157.913757173766
 20
44296.938725317123
 11
46596.538757173759
 21
43538.966069067123
  0
LINE
  8
_0-0_
  6
CONTINUOUS
 62
    7
 10
46019.112975923759
 20
45113.890873754623
 11
46702.502136080009
 21
43639.488530004623
  0
LINE
  8
_0-0_
  6
CONTINUOUS
 62
    7
 10
45958.925964205016
 20
45056.799076879623
 11
46640.058288423759
 21
43580.252201879623
  0
LINE
  8
_0-0_
  6
CONTINUOUS
 62
    7
 10
48033.006042330009
 20
44901.639897192123
 11
46973.132018892509
 21
46018.910405004623
  0
LINE
  8
_0-0_
  6
CONTINUOUS
 62
    7
 10
48180.519714205016
 20
44862.388920629623
 11
46941.717468111259
 21
46168.283451879623
  0
LINE
  8
_0-0_
  6
CONTINUOUS
 62
    7
 10
46040.878112642509
 20
45134.542240942115
 11
47477.236511080016
 21
44374.420170629623
  0
LINE
  8
_0-0_
  6
CONTINUOUS
 62
    7
 10
46101.075378267509
 20
45191.629155004623
 11
47539.680358736259
 21
44433.656498754623
  0
LINE
  8
_0-0_
  6
CONTINUOUS
 62
    7
 10
47113.707702486259
 20
45681.840092504623
 11
47703.821960298759
 21
45059.781498754623
  0
LINE
  8
_0-0_
  6
CONTINUOUS
 62
    7
 10
45466.669128267509
 20
44134.266850317123
 11
45239.222350923759
 21
44374.055912817115
  0
LINE
  8
_0-0_
  6
CONTINUOUS
 62
    7
 10
46902.067565767509
 20
45951.486576879623
 11
47187.325866548766
 21
45333.107670629623
  0
LINE
  8
_0-0_
  6
CONTINUOUS
 62
    7
 10
46962.264831392516
 20
46008.599858129623
 11
47303.959167330009
 21
45271.393803442115
  0
LINE
  8
_0-0_
  6
CONTINUOUS
 62
    7
 10
47242.633972017509
 20
45213.216069067115
 11
46523.326354830009
 21
45592.205326879623
  0
LINE
  8
_0-0_
  6
CONTINUOUS
 62
    7
 10
47187.325866548766
 20
45333.107670629623
 11
46585.779968111259
 21
45651.449467504623
  0
LINE
  8
_0-0_
  6
CONTINUOUS
 62
    7
 10
47115.835632173766
 20
46333.457280004623
 11
48354.648132173759
 21
45027.569584692123
  0
LINE
  8
_0-0_
  6
CONTINUOUS
 62
    7
 10
48323.203307955009
 20
45176.943608129623
 11
47263.339538423759
 21
46294.201420629623
  0
LINE
  8
_0-0_
  6
CONTINUOUS
 62
    7
 10
47274.216979830009
 20
46304.517826879623
 11
48757.351257173766
 21
45588.787358129623
  0
LINE
  8
_0-0_
  6
CONTINUOUS
 62
    7
 10
47337.047057955009
 20
46364.123295629623
 11
48820.171569673759
 21
45648.375248754623
  0
LINE
  8
_0-0_
  6
CONTINUOUS
 62
    7
 10
48841.936218111259
 20
45669.027592504623
 11
48205.333190767509
 21
47187.802983129623
  0
LINE
  8
_0-0_
  6
CONTINUOUS
 62
    7
 10
48268.153014986259
 20
47247.398686254623
 11
48904.756286470641
 21
45728.615483129623
  0
LINE
  8
_0-0_
  6
CONTINUOUS
 62
    7
 10
48289.917663423759
 20
47268.052983129623
 11
49773.042419283141
 21
46552.302983129615
  0
LINE
  8
_0-0_
  6
CONTINUOUS
 62
    7
 10
49835.872253267516
 20
46611.896733129615
 11
48352.727722017509
 21
47327.633061254615
  0
LINE
  8
_0-0_
  6
CONTINUOUS
 62
    7
 10
49857.627136080009
 20
46632.543217504623
 11
49221.023864595634
 21
48151.328373754623
  0
LINE
  8
_0-0_
  6
CONTINUOUS
 62
    7
 10
49283.843932955009
 20
48210.916264379623
 11
49920.447204439384
 21
46692.131108129623
  0
LINE
  8
_0-0_
  6
CONTINUOUS
 62
    7
 10
50851.563171236259
 20
47575.414311254623
 11
49368.428893892509
 21
48291.162358129623
  0
LINE
  8
_0-0_
  6
CONTINUOUS
 62
    7
 10
49305.598815767516
 20
48231.562748754615
 11
50788.733337251884
 21
47515.818608129623
  0
LINE
  8
_0-0_
  6
CONTINUOUS
 62
    7
 10
47566.562194673759
 20
46163.441655004623
 11
48417.527526705009
 21
45266.408451879623
  0
LINE
  8
_0-0_
  6
CONTINUOUS
 62
    7
 10
45856.535339205009
 20
42836.969975317115
 11
44796.661315767509
 21
43954.232670629623
  0
LINE
  8
_0-0_
  6
CONTINUOUS
 62
    7
 10
44841.259948580009
 20
43602.086186254623
 11
44644.307800142516
 21
43809.705326879623
  0
LINE
  8
_0-0_
  6
CONTINUOUS
 62
    7
 10
46004.039245455009
 20
42797.718022192123
 11
44765.226745455009
 21
44103.601811254623
  0
LINE
  8
_0-0_
  6
CONTINUOUS
 62
    7
 10
45416.052917330009
 20
44071.394780004615
 11
46241.036804048759
 21
43201.725834692123
  0
LINE
  8
_0-0_
  6
CONTINUOUS
 62
    7
 10
46299.086608736266
 20
43256.793217504623
 11
45637.481628267509
 21
43954.202397192123
  0
LINE
  8
_0-0_
  6
CONTINUOUS
 62
    7
 10
47242.633972017509
 20
45213.216069067115
 11
47583.210143892509
 21
44474.947514379615
  0
LINE
  8
_0-0_
  6
CONTINUOUS
 62
    7
 10
47359.445007173766
 20
45151.677983129623
 11
47645.653991548759
 21
44534.199467504615
  0
LINE
  8
_0-0_
  6
CONTINUOUS
 62
    7
 10
47961.941100923766
 20
44834.234623754623
 11
47359.445007173766
 21
45151.677983129623
  0
LINE
  8
_0-0_
  6
CONTINUOUS
 62
    7
 10
48022.138366548759
 20
44891.331303442123
 11
47303.959167330009
 21
45271.393803442115
  0
LINE
  8
_0-0_
  6
CONTINUOUS
 62
    7
 10
47482.382995455009
 20
45176.968998754623
 11
47219.057800142516
 21
45454.536381567115
  0
LINE
  8
_0-0_
  6
CONTINUOUS
 62
    7
 10
46001.624206392509
 20
42974.610600317123
 11
47089.874206392509
 21
44006.957280004623
  0
LINE
  8
_0-0_
  6
CONTINUOUS
 62
    7
 10
46091.098327486259
 20
42880.296147192123
 11
47179.348327486266
 21
43912.642826879615
  0
LINE
  8
_0-0_
  6
CONTINUOUS
 62
    7
 10
48178.124694673759
 20
45039.305912817123
 11
47089.874206392509
 21
44006.957280004623
  0
LINE
  8
_0-0_
  6
CONTINUOUS
 62
    7
 10
48267.589050142509
 20
44944.983647192123
 11
47179.348327486266
 21
43912.642826879615
  0
LINE
  8
_0-0_
  6
CONTINUOUS
 62
    7
 10
47880.662292330009
 20
44757.120365942123
 11
47653.205749361259
 21
44996.901615942123
  0
LINE
  8
_0-0_
  6
CONTINUOUS
 62
    7
 10
47873.644714205009
 20
44880.733647192115
 11
47938.701843111259
 21
44812.182865942123
  0
LINE
  8
_0-0_
  6
CONTINUOUS
 62
    7
 10
48267.589050142509
 20
44944.983647192123
 11
50444.069518892516
 21
47009.660405004623
  0
LINE
  8
_0-0_
  6
CONTINUOUS
 62
    7
 10
48178.124694673759
 20
45039.305912817123
 11
50354.595153658134
 21
47103.974858129615
  0
LINE
  8
_0-0_
  6
CONTINUOUS
 62
    7
 10
48475.567077486259
 20
45321.470951879623
 11
47769.937682955016
 21
46065.293217504623
  0
LINE
  8
_0-0_
  6
CONTINUOUS
 62
    7
 10
45704.181823580009
 20
42692.442631567123
 11
45507.219421236259
 21
42900.052006567123
  0
LINE
  8
_0-0_
  6
CONTINUOUS
 62
    7
 10
45710.605163423759
 20
42801.907475317123
 11
45762.211120455016
 21
42747.500248754623
  0
LINE
  8
_0-0_
  6
CONTINUOUS
 62
    7
 10
45845.637878267516
 20
42826.641850317123
 11
45104.070983736259
 21
43184.506108129623
  0
LINE
  8
_0-0_
  6
CONTINUOUS
 62
    7
 10
44911.256042330009
 20
43644.524662817123
 11
45553.312682955009
 21
42967.726811254623
  0
LINE
  8
_0-0_
  6
CONTINUOUS
 62
    7
 10
45349.926940767509
 20
43065.879155004623
 11
44998.562682955016
 21
43436.268803442123
  0
LINE
  8
_0-0_
  6
CONTINUOUS
 62
    7
 10
44941.770202486259
 20
44091.878178442115
 11
46029.990417330009
 21
45124.214115942115
  0
LINE
  8
_0-0_
  6
CONTINUOUS
 62
    7
 10
44852.296081392509
 20
44186.189701879615
 11
45940.526061861259
 21
45218.525639379615
  0
LINE
  8
_0-0_
  6
CONTINUOUS
 62
    7
 10
44975.619811861259
 20
44303.184819067123
 11
44944.650573580009
 21
44335.836186254615
  0
LINE
  8
_0-0_
  6
CONTINUOUS
 62
    7
 10
45084.444030611266
 20
44406.413334692123
 11
45053.474304048759
 21
44439.073490942123
  0
LINE
  8
_0-0_
  6
CONTINUOUS
 62
    7
 10
45181.173034517516
 20
44318.988530004615
 11
45246.219909517516
 21
44250.423100317115
  0
LINE
  8
_0-0_
  6
CONTINUOUS
 62
    7
 10
47118.240905611266
 20
46156.562748754615
 11
46029.990417330009
 21
45124.214115942115
  0
LINE
  8
_0-0_
  6
CONTINUOUS
 62
    7
 10
47028.766784517509
 20
46250.869389379623
 11
45940.526061861259
 21
45218.525639379615
  0
LINE
  8
_0-0_
  6
CONTINUOUS
 62
    7
 10
46905.442565767509
 20
46133.883061254615
 11
46874.463073580009
 21
46166.515873754623
  0
LINE
  8
_0-0_
  6
CONTINUOUS
 62
    7
 10
46796.608581392516
 20
46030.640873754623
 11
46765.638854830016
 21
46063.293217504623
  0
LINE
  8
_0-0_
  6
CONTINUOUS
 62
    7
 10
46878.827819673759
 20
45929.437748754615
 11
46943.875182955016
 21
45860.883061254615
  0
LINE
  8
_0-0_
  6
CONTINUOUS
 62
    7
 10
47048.255065767509
 20
45634.605717504623
 11
46820.788268892509
 21
45874.390873754623
  0
LINE
  8
_0-0_
  6
CONTINUOUS
 62
    7
 10
47028.766784517509
 20
46250.869389379623
 11
49205.257018892516
 21
48315.552983129623
  0
LINE
  8
_0-0_
  6
CONTINUOUS
 62
    7
 10
49294.731384126884
 20
48221.238530004623
 11
47118.240905611266
 21
46156.562748754615
  0
LINE
  8
_0-0_
  6
CONTINUOUS
 62
    7
 10
47121.140807955009
 20
46400.525639379623
 11
47152.100280611259
 21
46367.867436254615
  0
LINE
  8
_0-0_
  6
CONTINUOUS
 62
    7
 10
47357.643737642516
 20
46383.674076879615
 11
47409.269714205009
 21
46329.261967504623
  0
LINE
  8
_0-0_
  6
CONTINUOUS
 62
    7
 10
47612.645202486259
 20
46231.119389379623
 11
47415.693054048759
 21
46438.726811254623
  0
LINE
  8
_0-0_
  6
CONTINUOUS
 62
    7
 10
47229.954772798759
 20
46503.756108129615
 11
47260.934264986266
 21
46471.111576879623
  0
LINE
  8
_0-0_
  6
CONTINUOUS
 62
    7
 10
44702.337097017509
 20
43864.756108129623
 11
44753.963073580016
 21
43810.353764379623
  0
LINE
  8
_0-0_
  6
CONTINUOUS
 62
    7
 10
44697.982604830009
 20
44101.838139379615
 11
44728.952331392509
 21
44069.185795629615
  0
LINE
  8
_0-0_
  6
CONTINUOUS
 62
    7
 10
44589.158386080009
 20
43998.608647192123
 11
44620.118347017509
 21
43965.958256567123
  0
LINE
  8
_0-0_
  6
CONTINUOUS
 62
    7
 10
40412.265807955009
 20
39974.239506567123
 11
40501.739440767509
 21
39879.915287817123
  0
LINE
  8
_0-0_
  6
CONTINUOUS
 62
    7
 10
43770.083190767516
 20
42980.388920629623
 11
44406.696472017509
 21
41461.602787817123
  0
LINE
  8
_0-0_
  6
CONTINUOUS
 62
    7
 10
44343.876159517516
 20
41402.014897192123
 11
43707.262878267509
 21
42920.792240942123
  0
LINE
  8
_0-0_
  6
CONTINUOUS
 62
    7
 10
42765.269714205009
 20
42027.188725317123
 11
40588.789245455009
 21
39962.503178442123
  0
LINE
  8
_0-0_
  6
CONTINUOUS
 62
    7
 10
40586.379089205016
 20
40139.400639379623
 11
41825.196472017509
 21
38833.522709692123
  0
LINE
  8
_0-0_
  6
CONTINUOUS
 62
    7
 10
42312.494323580009
 20
39474.977787817123
 11
41675.881042330016
 21
40993.753178442123
  0
LINE
  8
_0-0_
  6
CONTINUOUS
 62
    7
 10
41738.701354830009
 20
41053.342045629623
 11
42375.304870455009
 21
39534.563725317123
  0
LINE
  8
_0-0_
  6
CONTINUOUS
 62
    7
 10
41760.466003267509
 20
41073.993412817123
 11
43243.600768892509
 21
40358.251225317123
  0
LINE
  8
_0-0_
  6
CONTINUOUS
 62
    7
 10
43306.410339205016
 20
40417.846928442123
 11
41823.276550142509
 21
41133.582280004623
  0
LINE
  8
_0-0_
  6
CONTINUOUS
 62
    7
 10
43328.175964205016
 20
40438.493412817123
 11
42691.572448580009
 21
41957.269780004623
  0
LINE
  8
_0-0_
  6
CONTINUOUS
 62
    7
 10
42754.382018892509
 20
42016.865483129623
 11
43391.005065767516
 21
40498.087162817123
  0
LINE
  8
_0-0_
  6
CONTINUOUS
 62
    7
 10
44322.111511080009
 20
41381.363530004623
 11
42838.976745455009
 21
42097.104740942123
  0
LINE
  8
_0-0_
  6
CONTINUOUS
 62
    7
 10
42776.157409517509
 20
42037.516850317123
 11
44259.291198580016
 21
41321.782475317123
  0
LINE
  8
_0-0_
  6
CONTINUOUS
 62
    7
 10
45337.802429048759
 20
42344.881108129623
 11
43854.668151705009
 21
43060.620365942123
  0
LINE
  8
_0-0_
  6
CONTINUOUS
 62
    7
 10
43791.847839205016
 20
43001.034428442123
 11
45274.982604830009
 21
42285.285405004623
  0
LINE
  8
_0-0_
  6
CONTINUOUS
 62
    7
 10
44994.019714205009
 20
43237.632084692123
 11
44362.513854830016
 21
43542.390873754615
  0
LINE
  8
_0-0_
  6
CONTINUOUS
 62
    7
 10
45041.260925142509
 20
43124.923100317115
 11
44299.693542330009
 21
43482.787358129623
  0
LINE
  8
_0-0_
  6
CONTINUOUS
 62
    7
 10
40719.170104830009
 20
38733.613530004623
 11
40425.770690767516
 21
39039.904545629623
  0
LINE
  8
_0-0_
  6
CONTINUOUS
 62
    7
 10
40091.192565767509
 20
38038.216069067123
 11
40684.568542330009
 21
38428.119389379623
  0
LINE
  8
_0-0_
  6
CONTINUOUS
 62
    7
 10
39716.850768892509
 20
38193.588139379623
 11
39836.270690767516
 21
38067.718022192123
  0
LINE
  8
_0-0_
  6
CONTINUOUS
 62
    7
 10
40120.216979830016
 20
39020.045170629623
 11
39700.816589205009
 21
38449.708256567123
  0
LINE
  8
_0-0_
  6
CONTINUOUS
 62
    7
 10
41561.603698580009
 20
38762.663334692123
 11
40501.739440767509
 21
39879.915287817123
  0
LINE
  8
_0-0_
  6
CONTINUOUS
 62
    7
 10
41451.166198580009
 20
38690.182865942123
 11
40423.534362642509
 21
39773.452397192123
  0
LINE
  8
_0-0_
  6
CONTINUOUS
 62
    7
 10
41651.068542330009
 20
38668.345951879623
 11
41738.136901705016
 21
38750.934819067123
  0
LINE
  8
_0-0_
  6
CONTINUOUS
 62
    7
 10
41648.663268892509
 20
38845.248295629623
 11
41561.603698580009
 21
38762.663334692123
  0
LINE
  8
_0-0_
  6
CONTINUOUS
 62
    7
 10
41561.603698580009
 20
38762.663334692123
 11
41651.068542330009
 21
38668.345951879623
  0
LINE
  8
_0-0_
  6
CONTINUOUS
 62
    7
 10
40501.739440767509
 20
39879.915287817123
 11
40588.789245455009
 21
39962.503178442123
  0
LINE
  8
_0-0_
  6
CONTINUOUS
 62
    7
 10
41738.136901705016
 20
38750.934819067123
 11
43914.617370455009
 21
40815.611576879623
  0
LINE
  8
_0-0_
  6
CONTINUOUS
 62
    7
 10
41648.663268892509
 20
38845.248295629623
 11
43825.143737642509
 21
40909.930912817123
  0
LINE
  8
_0-0_
  6
CONTINUOUS
 62
    7
 10
41793.761901705009
 20
38982.886967504623
 11
40733.878112642516
 21
40100.149662817123
  0
LINE
  8
_0-0_
  6
CONTINUOUS
 62
    7
 10
40744.765807955016
 20
40110.472905004623
 11
42227.899597017509
 21
39394.727787817123
  0
LINE
  8
_0-0_
  6
CONTINUOUS
 62
    7
 10
40807.594909517516
 20
40170.078373754623
 11
42290.710143892509
 21
39454.326420629623
  0
LINE
  8
_0-0_
  6
CONTINUOUS
 62
    7
 10
40828.202331392516
 20
40189.621342504623
 11
40879.828307955009
 21
40135.218998754623
  0
LINE
  8
_0-0_
  6
CONTINUOUS
 62
    7
 10
41037.120300142509
 20
39969.389897192123
 11
41888.075378267516
 21
39072.366459692123
  0
LINE
  8
_0-0_
  6
CONTINUOUS
 62
    7
 10
41946.115417330009
 20
39127.411381567123
 11
41240.496276705009
 21
39871.240483129623
  0
LINE
  8
_0-0_
  6
CONTINUOUS
 62
    7
 10
41083.183776705009
 20
40037.061772192123
 11
40886.241393892509
 21
40244.683842504623
  0
LINE
  8
_0-0_
  6
CONTINUOUS
 62
    7
 10
40499.319518892516
 20
40056.822514379623
 11
40412.265807955009
 21
39974.239506567123
  0
LINE
  8
_0-0_
  6
CONTINUOUS
 62
    7
 10
40499.319518892516
 20
40056.822514379623
 11
42675.805847017509
 21
42121.507084692123
  0
LINE
  8
_0-0_
  6
CONTINUOUS
 62
    7
 10
40591.689636080016
 20
40206.462162817123
 11
40622.648620455009
 21
40173.817631567123
  0
LINE
  8
_0-0_
  6
CONTINUOUS
 62
    7
 10
40700.503112642516
 20
40309.691655004623
 11
40731.482604830009
 21
40277.052006567123
  0
LINE
  8
_0-0_
  6
CONTINUOUS
 62
    7
 10
38468.754089205016
 20
37111.821537817123
 11
38690.237487642516
 21
36878.332280004623
  0
LINE
  8
_0-0_
  6
CONTINUOUS
 62
    7
 10
38690.237487642516
 20
36878.332280004623
 11
38761.629089205009
 21
36769.688725317123
  0
LINE
  8
_0-0_
  6
CONTINUOUS
 62
    7
 10
38364.017761080016
 20
37188.831791723373
 11
38468.754089205016
 21
37111.821537817123
  0
LINE
  8
_0-0_
  6
CONTINUOUS
 62
    7
 10
38101.845886080016
 20
36554.542240942123
 11
38331.658386080009
 21
36747.377201879623
  0
LINE
  8
_0-0_
  6
CONTINUOUS
 62
    7
 10
40412.265807955009
 20
39974.239506567123
 11
38055.609557955009
 21
36769.443608129623
  0
LINE
  8
_0-0_
  6
DASHED1
 62
    7
 10
38237.611511080016
 20
36626.101811254623
 11
38189.102722017516
 21
36683.913822973373
  0
LINE
  8
_0-0_
  6
CONTINUOUS
 62
    7
 10
62366.630065767516
 20
30647.81995090306
 11
77366.629089205016
 21
30647.81995090306
  0
LINE
  8
_0-0_
  6
CONTINUOUS
 62
    7
 10
60866.630065767516
 20
31147.82532199681
 11
78866.629089205016
 21
31147.82532199681
  0
ARC
  8
_0-0_
  6
CONTINUOUS
 62
    7
 10
18987.035339205013
 20
31084.225834692119
 40
114.85513305664064
 50
270.08543395996094
 51
89.914550781250014
  0
ARC
  8
_0-0_
  6
CONTINUOUS
 62
    7
 10
19799.910339205009
 20
31129.456669653056
 40
118.96895599365234
 50
284.39080810546875
 51
75.609176635742202
  0
CIRCLE
  8
_0-0_
  6
CONTINUOUS
 62
    7
 10
26197.568542330009
 20
31333.973149145248
 40
750.00006103515625
  0
CIRCLE
  8
_0-0_
  6
CONTINUOUS
 62
    7
 10
26197.568542330009
 20
31333.973149145248
 40
350.00003051757813
  0
CIRCLE
  8
_0-0_
  6
CONTINUOUS
 62
    7
 10
30249.068542330009
 20
31333.973149145248
 40
750.00006103515625
  0
CIRCLE
  8
_0-0_
  6
CONTINUOUS
 62
    7
 10
30249.068542330009
 20
31333.973149145248
 40
350.00003051757813
  0
CIRCLE
  8
_0-0_
  6
CONTINUOUS
 62
    7
 10
22629.840026705009
 20
31333.973149145248
 40
750.00006103515625
  0
CIRCLE
  8
_0-0_
  6
CONTINUOUS
 62
    7
 10
22629.840026705009
 20
31333.973149145248
 40
350.00003051757813
  0
ARC
  8
_0-0_
  6
CONTINUOUS
 62
    7
 10
9449.6173704550074
 20
29219.309109533431
 40
66.691268920898438
 50
117.39010620117187
 51
252.43276977539062
  0
ARC
  8
_0-0_
  6
CONTINUOUS
 62
    7
 10
7747.7501829550074
 20
30140.356816137431
 40
22.102218627929688
 50
92.090927124023438
 51
267.9090576171875
  0
ARC
  8
_0-0_
  6
CONTINUOUS
 62
    7
 10
9509.191589205011
 20
29904.568913305404
 40
40.489879608154297
 50
33.259002685546875
 51
173.47033691406253
  0
ARC
  8
_0-0_
  6
CONTINUOUS
 62
    7
 10
9661.1290892050074
 20
29651.554295385482
 40
355.91726684570312
 50
6.8798828124999991
 51
47.34307861328125
  0
ARC
  8
_0-0_
  6
CONTINUOUS
 62
    7
 10
9648.6134642050165
 20
28559.096379125713
 40
40.582416534423828
 50
199.37130737304687
 51
340.62867736816406
  0
ARC
  8
_0-0_
  6
CONTINUOUS
 62
    7
 10
9470.605651705011
 20
28778.8872726804
 40
543.20257568359375
 50
306.01101684570312
 51
359.62673950195312
  0
ARC
  8
_0-0_
  6
CONTINUOUS
 62
    7
 10
12322.496276705009
 20
30953.93518527806
 40
98.002685546875
 50
94.264541625976563
 51
258.87544250488281
  0
ARC
  8
_0-0_
  6
CONTINUOUS
 62
    7
 10
12962.539245455013
 20
30915.510258520248
 40
97.829643249511719
 50
273.15109252929687
 51
79.988891601562514
  0
ARC
  8
_0-0_
  6
CONTINUOUS
 62
    7
 10
14529.550964205009
 20
30881.083988988998
 40
98.002685546875
 50
97.694549560546875
 51
262.30543518066406
  0
ARC
  8
_0-0_
  6
CONTINUOUS
 62
    7
 10
15170.754089205013
 20
30881.02209934056
 40
97.829643249511719
 50
276.58110046386719
 51
83.41888427734375
  0
ARC
  8
_0-0_
  6
CONTINUOUS
 62
    7
 10
19312.480651705013
 20
29843.612126196029
 40
40.178050994873047
 50
290.97381591796875
 51
32.156280517578132
  0
ARC
  8
_0-0_
  6
CONTINUOUS
 62
    7
 10
18594.425964205013
 20
29791.578007543681
 40
690.3631591796875
 50
289.53050231933594
 51
342.60798645019531
  0
CIRCLE
  8
_0-0_
  6
CONTINUOUS
 62
    7
 10
8885.8595579550074
 20
31437.628178442123
 40
115.00000000000001
  0
CIRCLE
  8
_0-0_
  6
CONTINUOUS
 62
    7
 10
8885.8595579550074
 20
31437.628178442123
 40
80.000007629394531
  0
ARC
  8
_0-0_
  6
CONTINUOUS
 62
    7
 10
7746.1408079550092
 20
31184.359745824935
 40
88.349990844726563
 50
90
 51
270
  0
ARC
  8
_0-0_
  6
CONTINUOUS
 62
    7
 10
7747.6486204550156
 20
31739.487309301494
 40
22.138910293579102
 50
93.905380249023438
 51
266.0946044921875
  0
ARC
  8
_0-0_
  6
CONTINUOUS
 62
    7
 10
15529.777526705016
 20
31799.681889379623
 40
179.46499633789063
 50
270
 51
0
  0
ARC
  8
_0-0_
  6
CONTINUOUS
 62
    7
 10
14233.980651705007
 20
32400.644047582744
 40
70.679985046386719
 50
0
 51
90
  0
ARC
  8
_0-0_
  6
CONTINUOUS
 62
    7
 10
14233.980651705007
 20
32400.644047582744
 40
44.174995422363281
 50
0
 51
90
  0
ARC
  8
_0-0_
  6
CONTINUOUS
 62
    7
 10
13665.590026705013
 20
32400.644047582744
 40
44.174995422363281
 50
90
 51
180
  0
ARC
  8
_0-0_
  6
CONTINUOUS
 62
    7
 10
13665.590026705013
 20
32400.644047582744
 40
70.679985046386719
 50
90
 51
180
  0
ARC
  8
_0-0_
  6
CONTINUOUS
 62
    7
 10
9523.449401705011
 20
31850.884770238998
 40
66.393936157226563
 50
3.6058502197265621
 51
176.39413452148437
  0
ARC
  8
_0-0_
  6
CONTINUOUS
 62
    7
 10
11137.949401705009
 20
31938.634281957748
 40
18.066640853881836
 50
329.42378234863281
 51
127.30912780761722
  0
ARC
  8
_0-0_
  6
CONTINUOUS
 62
    7
 10
11328.734557955011
 20
31950.726567113998
 40
33.968662261962891
 50
24.44976806640625
 51
155.55021667480469
  0
ARC
  8
_0-0_
  6
CONTINUOUS
 62
    7
 10
11531.664245455011
 20
31730.653813207748
 40
57.453891754150391
 50
271.73664855957031
 51
88.263336181640625
  0
ARC
  8
_0-0_
  6
CONTINUOUS
 62
    7
 10
11531.941589205007
 20
31730.653813207748
 40
22.136526107788086
 50
86.1859130859375
 51
273.81407165527344
  0
ARC
  8
_0-0_
  6
CONTINUOUS
 62
    7
 10
11226.734557955013
 20
31725.558842504619
 40
28.965166091918949
 50
153.81497192382812
 51
276.62112426757812
  0
ARC
  8
_0-0_
  6
CONTINUOUS
 62
    7
 10
11426.457214205016
 20
31726.867924535873
 40
30.845497131347656
 50
282.77859497070312
 51
27.187606811523427
  0
ARC
  8
_0-0_
  6
CONTINUOUS
 62
    7
 10
10324.523620455011
 20
33908.890873754623
 40
150
 50
270
 51
0
  0
ARC
  8
_0-0_
  6
CONTINUOUS
 62
    7
 10
15008.675964205009
 20
34117.960209692123
 40
83.651939392089844
 50
277.98101806640625
 51
327.96209716796875
  0
ARC
  8
_0-0_
  6
CONTINUOUS
 62
    7
 10
15010.265807955011
 20
34114.855229223373
 40
106.70957946777344
 50
275.38771057128906
 51
329.89064025878906
  0
ARC
  8
_0-0_
  6
CONTINUOUS
 62
    7
 10
15607.425964205015
 20
33932.986576879623
 40
75.651321411132813
 50
3.7503967285156254
 51
88.587875366210937
  0
ARC
  8
_0-0_
  6
CONTINUOUS
 62
    7
 10
15612.590026705016
 20
33938.339115942123
 40
96.836578369140625
 50
359.76068115234375
 51
91.949508666992202
  0
CIRCLE
  8
_0-0_
  6
CONTINUOUS
 62
    7
 10
15973.183776705013
 20
31522.661869848373
 40
23.606069564819336
  0
ARC
  8
_0-0_
  6
CONTINUOUS
 62
    7
 10
15974.617370455007
 20
31505.894291723373
 40
94.945198059082031
 50
28.633514404296875
 51
151.36647033691406
  0
CIRCLE
  8
_0-0_
  6
CONTINUOUS
 62
    7
 10
11542.250182955013
 20
31618.093266332751
 40
22.152544021606445
  0
ARC
  8
_0-0_
  6
CONTINUOUS
 62
    7
 10
11540.379089205009
 20
31618.687260473373
 40
80.066619873046875
 50
23.802078247070316
 51
154.46707153320312
  0
CIRCLE
  8
_0-0_
  6
CONTINUOUS
 62
    7
 10
14345.445495455009
 20
31938.678715551498
 40
750.00006103515625
  0
CIRCLE
  8
_0-0_
  6
CONTINUOUS
 62
    7
 10
14345.445495455009
 20
31938.678715551498
 40
350.00003051757813
  0
CIRCLE
  8
_0-0_
  6
CONTINUOUS
 62
    7
 10
10354.410339205015
 20
31938.678715551498
 40
750.00006103515625
  0
CIRCLE
  8
_0-0_
  6
CONTINUOUS
 62
    7
 10
10354.410339205015
 20
31938.678715551498
 40
350.00003051757813
  0
ARC
  8
_0-0_
  6
CONTINUOUS
 62
    7
 10
16439.859557955013
 20
36295.171147192123
 40
101.41293334960937
 50
216.22515869140625
 51
268.29290771484375
  0
ARC
  8
_0-0_
  6
CONTINUOUS
 62
    7
 10
16438.668151705009
 20
36294.943119848373
 40
127.65440368652344
 50
216.00390625000003
 51
269.17671203613281
  0
ARC
  8
_0-0_
  6
CONTINUOUS
 62
    7
 10
16802.015807955009
 20
36167.299076879623
 40
26.505001068115234
 50
0
 51
90
  0
ARC
  8
_0-0_
  6
CONTINUOUS
 62
    7
 10
14507.851745455013
 20
38426.107670629623
 40
53.010002136230469
 50
90
 51
180
  0
ARC
  8
_0-0_
  6
CONTINUOUS
 62
    7
 10
14507.851745455013
 20
38426.107670629623
 40
26.505001068115234
 50
90
 51
180
  0
ARC
  8
_0-0_
  6
CONTINUOUS
 62
    7
 10
14987.898620455007
 20
38396.457280004623
 40
82.664810180664063
 50
33.186416625976563
 51
90
  0
ARC
  8
_0-0_
  6
CONTINUOUS
 62
    7
 10
14987.898620455007
 20
38399.435795629623
 40
53.182239532470696
 50
31.667007446289066
 51
90
  0
ARC
  8
_0-0_
  6
CONTINUOUS
 62
    7
 10
16509.902526705009
 20
33382.299565160873
 40
1944.040283203125
 50
284.76100158691406
 51
315.42100524902344
  0
ARC
  8
_0-0_
  6
CONTINUOUS
 62
    7
 10
16515.117370455013
 20
33379.114994848373
 40
1894.585693359375
 50
283.61358642578125
 51
315.95549011230469
  0
ARC
  8
_0-0_
  6
CONTINUOUS
 62
    7
 10
21124.527526705013
 20
32447.825932348373
 40
300
 50
207.48550415039065
 51
270
  0
ARC
  8
_0-0_
  6
CONTINUOUS
 62
    7
 10
18987.035339205013
 20
31917.663822973373
 40
114.85513305664064
 50
270.08543395996094
 51
89.914550781250014
  0
ARC
  8
_0-0_
  6
CONTINUOUS
 62
    7
 10
19799.910339205009
 20
31962.890873754623
 40
118.96895599365234
 50
284.39080810546875
 51
75.609176635742202
  0
CIRCLE
  8
_0-0_
  6
CONTINUOUS
 62
    7
 10
18457.402526705013
 20
31938.678715551498
 40
750.00006103515625
  0
CIRCLE
  8
_0-0_
  6
CONTINUOUS
 62
    7
 10
18457.402526705013
 20
31938.678715551498
 40
350.00003051757813
  0
CIRCLE
  8
_0-0_
  6
CONTINUOUS
 62
    7
 10
34723.851745455009
 20
31333.973149145248
 40
750.00006103515625
  0
CIRCLE
  8
_0-0_
  6
CONTINUOUS
 62
    7
 10
34723.851745455009
 20
31333.973149145248
 40
350.00003051757813
  0
CIRCLE
  8
_0-0_
  6
CONTINUOUS
 62
    7
 10
39138.163268892516
 20
31333.973149145248
 40
750.00006103515625
  0
CIRCLE
  8
_0-0_
  6
CONTINUOUS
 62
    7
 10
39138.163268892516
 20
31333.973149145248
 40
350.00003051757813
  0
CIRCLE
  8
_0-0_
  6
CONTINUOUS
 62
    7
 10
43492.003112642509
 20
31333.973149145248
 40
750.00006103515625
  0
CIRCLE
  8
_0-0_
  6
CONTINUOUS
 62
    7
 10
43492.003112642509
 20
31333.973149145248
 40
350.00003051757813
  0
ARC
  8
_0-0_
  6
CONTINUOUS
 62
    7
 10
45074.526550142516
 20
33647.824955785873
 40
1499.99853515625
 50
270
 51
323.13005065917969
  0
CIRCLE
  8
_0-0_
  6
CONTINUOUS
 62
    7
 10
50506.538024751884
 20
31938.678715551498
 40
750.00006103515625
  0
CIRCLE
  8
_0-0_
  6
CONTINUOUS
 62
    7
 10
50506.538024751884
 20
31938.678715551498
 40
350.00003051757813
  0
CIRCLE
  8
_0-0_
  6
CONTINUOUS
 62
    7
 10
47422.571960298759
 20
31938.678715551498
 40
750.00006103515625
  0
CIRCLE
  8
_0-0_
  6
CONTINUOUS
 62
    7
 10
47422.571960298759
 20
31938.678715551498
 40
350.00003051757813
  0
ARC
  8
_0-0_
  6
CONTINUOUS
 62
    7
 10
52349.534179537048
 20
32422.826908910873
 40
175.00001525878906
 50
90
 51
270
  0
ARC
  8
_0-0_
  6
CONTINUOUS
 62
    7
 10
53399.525207369072
 20
32422.826908910873
 40
175.00001525878906
 50
270
 51
90
  0
ARC
  8
_0-0_
  6
CONTINUOUS
 62
    7
 10
7324.5392454550147
 20
14384.467045629621
 40
1000
 50
180
 51
270
  0
ARC
  8
_0-0_
  6
CONTINUOUS
 62
    7
 10
10174.543151705006
 20
8134.4709518796208
 40
500
 50
180
 51
270
  0
ARC
  8
_0-0_
  6
CONTINUOUS
 62
    7
 10
9974.5392454550147
 20
8134.4709518796208
 40
1000
 50
180
 51
270
  0
ARC
  8
_0-0_
  6
CONTINUOUS
 62
    7
 10
10024.543151705006
 20
8184.4689987546217
 40
900
 50
180
 51
270
  0
ARC
  8
_0-0_
  6
CONTINUOUS
 62
    7
 10
10074.547057955009
 20
8234.4689987546226
 40
799.99981689453125
 50
180
 51
270
  0
ARC
  8
_0-0_
  6
CONTINUOUS
 62
    7
 10
9874.5470579550092
 20
12999.467045629621
 40
199.99995422363281
 50
90
 51
180
  0
ARC
  8
_0-0_
  6
CONTINUOUS
 62
    7
 10
9474.5431517050056
 20
12699.467045629621
 40
500
 50
90
 51
180
  0
ARC
  8
_0-0_
  6
CONTINUOUS
 62
    7
 10
9524.5470579550092
 20
12349.467045629621
 40
399.99990844726562
 50
90
 51
180
  0
ARC
  8
_0-0_
  6
CONTINUOUS
 62
    7
 10
21974.541198580013
 20
7834.4709518796208
 40
199.99995422363281
 50
270
 51
0
  0
ARC
  8
_0-0_
  6
CONTINUOUS
 62
    7
 10
17758.625182955009
 20
15608.319584692121
 40
2223.956787109375
 50
270.96284484863281
 51
346.88137817382807
  0
CIRCLE
  8
_0-0_
  6
CONTINUOUS
 62
    7
 10
23974.541198580013
 20
7484.4670456296199
 40
150
  0
CIRCLE
  8
_0-0_
  6
CONTINUOUS
 62
    7
 10
23124.541198580013
 20
7484.4670456296199
 40
150
  0
ARC
  8
_0-0_
  6
CONTINUOUS
 62
    7
 10
7324.5392454550147
 20
17884.464115942119
 40
1000
 50
90
 51
180
  0
ARC
  8
_0-0_
  6
CONTINUOUS
 62
    7
 10
9874.5470579550092
 20
19269.463139379623
 40
199.99995422363281
 50
180
 51
270
  0
ARC
  8
_0-0_
  6
CONTINUOUS
 62
    7
 10
9474.5431517050056
 20
19569.464115942123
 40
500
 50
180
 51
270
  0
ARC
  8
_0-0_
  6
CONTINUOUS
 62
    7
 10
9524.5470579550092
 20
19919.463139379623
 40
399.99990844726562
 50
180
 51
270
  0
ARC
  8
_0-0_
  6
CONTINUOUS
 62
    7
 10
10174.543151705006
 20
24134.466557348373
 40
500
 50
90
 51
180
  0
ARC
  8
_0-0_
  6
CONTINUOUS
 62
    7
 10
9974.5392454550147
 20
24134.466557348373
 40
1000
 50
90
 51
180
  0
ARC
  8
_0-0_
  6
CONTINUOUS
 62
    7
 10
10024.543151705006
 20
24084.468998754623
 40
900
 50
90
 51
180
  0
ARC
  8
_0-0_
  6
CONTINUOUS
 62
    7
 10
10074.547057955009
 20
24034.466557348373
 40
799.99981689453125
 50
90
 51
180
  0
ARC
  8
_0-0_
  6
CONTINUOUS
 62
    7
 10
17758.625182955009
 20
16660.611576879619
 40
2223.956787109375
 50
13.118606567382812
 51
89.037139892578111
  0
ARC
  8
_0-0_
  6
CONTINUOUS
 62
    7
 10
21974.541198580013
 20
24434.462651098373
 40
199.99995422363281
 50
0
 51
90
  0
CIRCLE
  8
_0-0_
  6
CONTINUOUS
 62
    7
 10
23974.541198580013
 20
24784.466557348373
 40
150
  0
CIRCLE
  8
_0-0_
  6
CONTINUOUS
 62
    7
 10
23124.541198580013
 20
24784.466557348373
 40
150
  0
CIRCLE
  8
_0-0_
  6
CONTINUOUS
 62
    7
 10
50474.534118501891
 20
16134.465092504621
 40
5149.99951171875
  0
CIRCLE
  8
_0-0_
  6
CONTINUOUS
 62
    7
 10
44974.541198580009
 20
7484.4670456296199
 40
150
  0
CIRCLE
  8
_0-0_
  6
CONTINUOUS
 62
    7
 10
44124.535339205009
 20
7484.4670456296199
 40
150
  0
ARC
  8
_0-0_
  6
CONTINUOUS
 62
    7
 10
52524.533477632744
 20
7384.4709518796208
 40
225
 50
333.61219787597656
 51
206.38778686523437
  0
ARC
  8
_0-0_
  6
CONTINUOUS
 62
    7
 10
52524.533477632744
 20
7384.4709518796208
 40
150
 50
318.18968200683599
 51
221.81030273437503
  0
ARC
  8
_0-0_
  6
CONTINUOUS
 62
    7
 10
53224.535766451103
 20
7384.4709518796208
 40
225
 50
333.61219787597656
 51
206.38778686523437
  0
ARC
  8
_0-0_
  6
CONTINUOUS
 62
    7
 10
53224.535766451103
 20
7384.4709518796208
 40
150
 50
318.18968200683599
 51
221.81030273437503
  0
ARC
  8
_0-0_
  6
CONTINUOUS
 62
    7
 10
54474.532409517509
 20
8634.4670456296208
 40
1499.999755859375
 50
270
 51
0
  0
ARC
  8
_0-0_
  6
CONTINUOUS
 62
    7
 10
54474.532409517509
 20
8634.4670456296208
 40
1499.999755859375
 50
270
 51
0
  0
ARC
  8
_0-0_
  6
CONTINUOUS
 62
    7
 10
54424.539611665954
 20
8684.4709518796208
 40
1399.999755859375
 50
270
 51
0
  0
CIRCLE
  8
_0-0_
  6
CONTINUOUS
 62
    7
 10
54774.533386080009
 20
7634.4689987546217
 40
150
  0
CIRCLE
  8
_0-0_
  6
CONTINUOUS
 62
    7
 10
53924.533080904235
 20
7634.4689987546217
 40
150
  0
ARC
  8
_0-0_
  6
CONTINUOUS
 62
    7
 10
53924.533080904235
 20
7634.4689987546217
 40
250
 50
90
 51
180
  0
ARC
  8
_0-0_
  6
CONTINUOUS
 62
    7
 10
54774.533386080009
 20
7634.4689987546217
 40
250
 50
0
 51
90
  0
ARC
  8
_0-0_
  6
CONTINUOUS
 62
    7
 10
54374.537048189384
 20
8734.4689987546226
 40
1299.9998779296875
 50
300
 51
358.89808654785156
  0
CIRCLE
  8
_0-0_
  6
CONTINUOUS
 62
    7
 10
44974.541198580009
 20
24784.466557348373
 40
150
  0
CIRCLE
  8
_0-0_
  6
CONTINUOUS
 62
    7
 10
44124.535339205009
 20
24784.466557348373
 40
150
  0
ARC
  8
_0-0_
  6
CONTINUOUS
 62
    7
 10
52524.533477632744
 20
24884.466557348373
 40
225
 50
153.61219787597656
 51
26.387786865234432
  0
ARC
  8
_0-0_
  6
CONTINUOUS
 62
    7
 10
52524.533477632744
 20
24884.466557348373
 40
150
 50
138.18968200683591
 51
41.810302734375
  0
ARC
  8
_0-0_
  6
CONTINUOUS
 62
    7
 10
53224.535766451103
 20
24884.466557348373
 40
225
 50
153.61219787597656
 51
26.387786865234432
  0
ARC
  8
_0-0_
  6
CONTINUOUS
 62
    7
 10
53224.535766451103
 20
24884.466557348373
 40
150
 50
138.18968200683591
 51
41.810302734375
  0
ARC
  8
_0-0_
  6
CONTINUOUS
 62
    7
 10
54474.532409517509
 20
23634.465092504623
 40
1499.999755859375
 50
0
 51
90
  0
ARC
  8
_0-0_
  6
CONTINUOUS
 62
    7
 10
54424.539611665954
 20
23584.467533910873
 40
1399.999755859375
 50
0
 51
90
  0
CIRCLE
  8
_0-0_
  6
CONTINUOUS
 62
    7
 10
54774.533386080009
 20
24634.468510473373
 40
150
  0
CIRCLE
  8
_0-0_
  6
CONTINUOUS
 62
    7
 10
53924.533080904235
 20
24634.468510473373
 40
150
  0
ARC
  8
_0-0_
  6
CONTINUOUS
 62
    7
 10
53924.533080904235
 20
24634.468510473373
 40
250
 50
180
 51
270
  0
ARC
  8
_0-0_
  6
CONTINUOUS
 62
    7
 10
54774.533386080009
 20
24634.468510473373
 40
250
 50
270
 51
0
  0
ARC
  8
_0-0_
  6
CONTINUOUS
 62
    7
 10
54374.537048189384
 20
23534.464604223369
 40
1299.9998779296875
 50
1.101898193359375
 51
60.000000000000007
  0
ARC
  8
_0-0_
  6
CONTINUOUS
 62
    7
 10
44034.537292330016
 20
15180.723881567121
 40
76.987953186035156
 50
212.40428161621091
 51
327.595703125
  0
ARC
  8
_0-0_
  6
CONTINUOUS
 62
    7
 10
44165.031432955009
 20
15227.222905004621
 40
109.49991607666017
 50
233.26507568359375
 51
306.73490905761719
  0
ARC
  8
_0-0_
  6
CONTINUOUS
 62
    7
 10
46969.128600923759
 20
15491.235600317119
 40
373.50119018554687
 50
250.35682678222656
 51
289.64315795898437
  0
ARC
  8
_0-0_
  6
CONTINUOUS
 62
    7
 10
45606.235046236259
 20
16016.491459692119
 40
115.27384948730469
 50
138.77354431152344
 51
221.2264404296875
  0
ARC
  8
_0-0_
  6
CONTINUOUS
 62
    7
 10
45454.539733736259
 20
15181.861576879621
 40
77.604179382324219
 50
213.11415100097656
 51
326.88583374023437
  0
ARC
  8
_0-0_
  6
CONTINUOUS
 62
    7
 10
45366.040222017509
 20
16083.948490942121
 40
55.71357727050782
 50
294.94499206542969
 51
65.05499267578125
  0
ARC
  8
_0-0_
  6
CONTINUOUS
 62
    7
 10
44034.537292330016
 20
17088.207280004623
 40
76.987953186035156
 50
32.404281616210937
 51
147.595703125
  0
ARC
  8
_0-0_
  6
CONTINUOUS
 62
    7
 10
44165.031432955009
 20
17041.713139379623
 40
109.49991607666017
 50
53.265075683593757
 51
126.7349090576172
  0
ARC
  8
_0-0_
  6
CONTINUOUS
 62
    7
 10
46969.128600923759
 20
16777.700444067123
 40
373.50119018554687
 50
70.356826782226563
 51
109.64315795898437
  0
ARC
  8
_0-0_
  6
CONTINUOUS
 62
    7
 10
45606.235046236259
 20
16252.444584692119
 40
115.27384948730469
 50
138.77354431152344
 51
221.2264404296875
  0
ARC
  8
_0-0_
  6
CONTINUOUS
 62
    7
 10
45454.539733736259
 20
17087.069584692123
 40
77.604179382324219
 50
33.114151000976562
 51
146.88583374023437
  0
ARC
  8
_0-0_
  6
CONTINUOUS
 62
    7
 10
45366.040222017509
 20
16184.982670629619
 40
55.71357727050782
 50
294.94499206542969
 51
65.05499267578125
  0
CIRCLE
  8
_0-0_
  6
CONTINUOUS
 62
    7
 10
50484.996032564384
 20
16134.465092504621
 40
334.330322265625
  0
CIRCLE
  8
_0-0_
  6
CONTINUOUS
 62
    7
 10
47849.539245455016
 20
16134.465092504621
 40
1124.9998779296875
  0
ARC
  8
_0-0_
  6
CONTINUOUS
 62
    7
 10
61366.632018892502
 20
29647.822911108135
 40
500
 50
180
 51
270
  0
ARC
  8
_0-0_
  6
CONTINUOUS
 62
    7
 10
78366.627136080016
 20
29647.822911108135
 40
500
 50
270
 51
0
  0
CIRCLE
  8
_0-0_
  6
CONTINUOUS
 62
    7
 10
62870.952331392502
 20
32362.973881567119
 40
350.00003051757813
  0
ARC
  8
_0-0_
  6
CONTINUOUS
 62
    7
 10
62870.952331392502
 20
32362.976322973373
 40
430.42623901367187
 50
0
 51
180
  0
CIRCLE
  8
_0-0_
  6
CONTINUOUS
 62
    7
 10
76862.306823580016
 20
32362.973881567119
 40
350.00003051757813
  0
ARC
  8
_0-0_
  6
CONTINUOUS
 62
    7
 10
76862.306823580016
 20
32362.976322973373
 40
430.42623901367187
 50
0
 51
180
  0
ARC
  8
_0-0_
  6
CONTINUOUS
 62
    7
 10
23498.576354830013
 20
42620.261967504623
 40
150
 50
23.578186035156261
 51
156.42182922363281
  0
ARC
  8
_0-0_
  6
CONTINUOUS
 62
    7
 10
23498.576354830013
 20
42620.261967504623
 40
150
 50
203.57818603515622
 51
336.42182922363281
  0
ARC
  8
_0-0_
  6
CONTINUOUS
 62
    7
 10
25608.709167330016
 20
41210.258061254623
 40
49.999992370605469
 50
270
 51
0
  0
ARC
  8
_0-0_
  6
CONTINUOUS
 62
    7
 10
25308.697448580009
 20
41210.258061254623
 40
49.999992370605469
 50
180
 51
270
  0
ARC
  8
_0-0_
  6
CONTINUOUS
 62
    7
 10
30698.586120455013
 20
40530.259037817123
 40
150
 50
90
 51
180
  0
ARC
  8
_0-0_
  6
CONTINUOUS
 62
    7
 10
30668.586120455013
 20
40560.259037817123
 40
150
 50
90
 51
180
  0
ARC
  8
_0-0_
  6
CONTINUOUS
 62
    7
 10
27898.334167330013
 20
40560.259037817123
 40
150
 50
0
 51
90
  0
ARC
  8
_0-0_
  6
CONTINUOUS
 62
    7
 10
27868.324401705013
 20
40530.259037817123
 40
150
 50
0
 51
90
  0
ARC
  8
_0-0_
  6
CONTINUOUS
 62
    7
 10
25768.306823580009
 20
40560.259037817123
 40
150
 50
90
 51
191.3099365234375
  0
ARC
  8
_0-0_
  6
CONTINUOUS
 62
    7
 10
25798.312682955009
 20
40530.259037817123
 40
150
 50
90
 51
180
  0
ARC
  8
_0-0_
  6
CONTINUOUS
 62
    7
 10
25418.314636080013
 20
40560.259037817123
 40
150
 50
0
 51
90
  0
ARC
  8
_0-0_
  6
CONTINUOUS
 62
    7
 10
25388.314636080013
 20
40530.259037817123
 40
150
 50
0
 51
78.690078735351563
  0
CIRCLE
  8
_0-0_
  6
CONTINUOUS
 62
    7
 10
28878.582214205009
 20
40080.258061254623
 40
199.99996948242187
  0
CIRCLE
  8
_0-0_
  6
CONTINUOUS
 62
    7
 10
28878.582214205009
 20
40080.258061254623
 40
150
  0
ARC
  8
_0-0_
  6
CONTINUOUS
 62
    7
 10
29948.580261080009
 20
40080.258061254623
 40
99.999984741210938
 50
180
 51
270
  0
ARC
  8
_0-0_
  6
CONTINUOUS
 62
    7
 10
29678.574401705009
 20
40580.259037817123
 40
99.999984741210938
 50
270
 51
0
  0
ARC
  8
_0-0_
  6
CONTINUOUS
 62
    7
 10
30204.052917330013
 20
40080.258061254623
 40
100.87062072753908
 50
262.46670532226562
 51
0
  0
ARC
  8
_0-0_
  6
CONTINUOUS
 62
    7
 10
28461.873229830009
 20
40827.078373754623
 40
109.99998474121094
 50
29.330718994140604
 51
171.69949340820312
  0
CIRCLE
  8
_0-0_
  6
CONTINUOUS
 62
    7
 10
28461.873229830009
 20
40827.078373754623
 40
60
  0
ARC
  8
_0-0_
  6
CONTINUOUS
 62
    7
 10
28878.582214205009
 20
40080.258061254623
 40
199.99996948242187
 50
347.04158020019531
 51
35.240936279296932
  0
ARC
  8
_0-0_
  6
CONTINUOUS
 62
    7
 10
26046.820495455006
 20
41480.252201879623
 40
720
 50
225
 51
270
  0
ARC
  8
_0-0_
  6
CONTINUOUS
 62
    7
 10
24727.867370455013
 20
40810.255131567123
 40
49.999992370605469
 50
270
 51
45
  0
ARC
  8
_0-0_
  6
CONTINUOUS
 62
    7
 10
23979.312682955013
 20
40959.638920629623
 40
49.401069641113281
 50
268.3240966796875
 51
45.389266967773438
  0
ARC
  8
_0-0_
  6
CONTINUOUS
 62
    7
 10
28228.591979830013
 20
42587.619389379623
 40
49.999992370605469
 50
92.923217773437514
 51
180
  0
ARC
  8
_0-0_
  6
CONTINUOUS
 62
    7
 10
29018.591979830013
 20
42627.969975317123
 40
49.999992370605469
 50
0
 51
92.9232177734375
  0
ARC
  8
_0-0_
  6
CONTINUOUS
 62
    7
 10
24513.506042330013
 20
42825.260990942123
 40
150
 50
0
 51
90
  0
ARC
  8
_0-0_
  6
CONTINUOUS
 62
    7
 10
24483.515807955009
 20
42795.254155004623
 40
150
 50
0
 51
90
  0
ARC
  8
_0-0_
  6
CONTINUOUS
 62
    7
 10
24868.318542330009
 20
42825.260990942123
 40
150
 50
90
 51
191.3099365234375
  0
ARC
  8
_0-0_
  6
CONTINUOUS
 62
    7
 10
24898.318542330013
 20
42795.254155004623
 40
150
 50
90
 51
180
  0
ARC
  8
_0-0_
  6
CONTINUOUS
 62
    7
 10
26822.529479830006
 20
42825.260990942123
 40
150
 50
0
 51
90
  0
ARC
  8
_0-0_
  6
CONTINUOUS
 62
    7
 10
26792.529479830013
 20
42795.254155004623
 40
150
 50
0
 51
90
  0
ARC
  8
_0-0_
  6
CONTINUOUS
 62
    7
 10
28178.519714205016
 20
42334.805912817123
 40
49.999992370605469
 50
90
 51
177.07679748535156
  0
ARC
  8
_0-0_
  6
CONTINUOUS
 62
    7
 10
28678.580261080016
 20
41480.252201879623
 40
99.999984741210938
 50
90
 51
180
  0
ARC
  8
_0-0_
  6
CONTINUOUS
 62
    7
 10
29678.574401705009
 20
41480.252201879623
 40
99.999984741210938
 50
0
 51
90
  0
ARC
  8
_0-0_
  6
CONTINUOUS
 62
    7
 10
28678.580261080016
 20
41750.259037817123
 40
99.999984741210938
 50
180
 51
270
  0
ARC
  8
_0-0_
  6
CONTINUOUS
 62
    7
 10
29678.574401705009
 20
41750.259037817123
 40
99.999984741210938
 50
270
 51
0
  0
ARC
  8
_0-0_
  6
CONTINUOUS
 62
    7
 10
28678.580261080016
 20
42210.215092504623
 40
99.999984741210938
 50
92.923217773437514
 51
180
  0
ARC
  8
_0-0_
  6
CONTINUOUS
 62
    7
 10
30422.927917330013
 20
41969.361576879623
 40
199.99996948242187
 50
349.22950744628906
 51
82.457824707031193
  0
ARC
  8
_0-0_
  6
CONTINUOUS
 62
    7
 10
29678.574401705009
 20
42112.421147192123
 40
99.999984741210938
 50
0
 51
79.229507446289063
  0
ARC
  8
_0-0_
  6
CONTINUOUS
 62
    7
 10
29948.580261080009
 20
42061.065678442123
 40
99.999984741210938
 50
79.229507446289034
 51
179.99999999999997
  0
ARC
  8
_0-0_
  6
CONTINUOUS
 62
    7
 10
30452.457214205016
 20
41965.215092504623
 40
99.999984741210938
 50
352.46670532226557
 51
79.229507446289063
  0
ARC
  8
_0-0_
  6
CONTINUOUS
 62
    7
 10
28127.759948580013
 20
43339.329350317123
 40
79.671134948730469
 50
331.86070251464844
 51
56.030853271484375
  0
ARC
  8
_0-0_
  6
CONTINUOUS
 62
    7
 10
24398.580261080009
 20
42620.261967504623
 40
150
 50
203.57818603515622
 51
156.42182922363281
  0
ARC
  8
_0-0_
  6
CONTINUOUS
 62
    7
 10
24434.978698580013
 20
41173.862553442123
 40
636.3961181640625
 50
45
 51
90
  0
ARC
  8
_0-0_
  6
CONTINUOUS
 62
    7
 10
24398.580261080009
 20
42620.261967504623
 40
60
 50
270
 51
90
  0
ARC
  8
_0-0_
  6
CONTINUOUS
 62
    7
 10
24473.574401705009
 20
42270.258061254623
 40
45.555564880371094
 50
0
 51
90
  0
ARC
  8
_0-0_
  6
CONTINUOUS
 62
    7
 10
23698.582214205013
 20
42025.258061254623
 40
49.999992370605469
 50
90
 51
180
  0
ARC
  8
_0-0_
  6
CONTINUOUS
 62
    7
 10
24248.576354830013
 20
42025.258061254623
 40
49.999992370605469
 50
0
 51
90
  0
ARC
  8
_0-0_
  6
CONTINUOUS
 62
    7
 10
24248.576354830013
 20
41965.259037817123
 40
49.999992370605469
 50
270
 51
0
  0
ARC
  8
_0-0_
  6
CONTINUOUS
 62
    7
 10
23698.582214205013
 20
41965.259037817123
 40
49.999992370605469
 50
180
 51
270
  0
ARC
  8
_0-0_
  6
CONTINUOUS
 62
    7
 10
23573.580261080009
 20
42270.258061254623
 40
45.555564880371094
 50
0
 51
90
  0
ARC
  8
_0-0_
  6
CONTINUOUS
 62
    7
 10
24323.586120455009
 20
42270.258061254623
 40
45.555564880371094
 50
90
 51
180
  0
ARC
  8
_0-0_
  6
CONTINUOUS
 62
    7
 10
25014.650573580009
 20
41848.331303442123
 40
13.332817077636719
 50
116.56506347656247
 51
296.5650634765625
  0
ARC
  8
_0-0_
  6
CONTINUOUS
 62
    7
 10
25902.742370455009
 20
41848.331303442123
 40
13.332817077636719
 50
243.43495178222656
 51
63.434951782226563
  0
ARC
  8
_0-0_
  6
CONTINUOUS
 62
    7
 10
25608.709167330016
 20
41610.260014379623
 40
49.999992370605469
 50
0
 51
90
  0
ARC
  8
_0-0_
  6
CONTINUOUS
 62
    7
 10
25308.697448580009
 20
41610.260014379623
 40
49.999992370605469
 50
90
 51
180
  0
ARC
  8
_0-0_
  6
CONTINUOUS
 62
    7
 10
26123.804870455013
 20
41965.259037817123
 40
49.999992370605469
 50
180
 51
270
  0
ARC
  8
_0-0_
  6
CONTINUOUS
 62
    7
 10
26673.802917330009
 20
41965.259037817123
 40
49.999992370605469
 50
270
 51
0
  0
ARC
  8
_0-0_
  6
CONTINUOUS
 62
    7
 10
26673.802917330009
 20
42025.258061254623
 40
49.999992370605469
 50
0
 51
90
  0
ARC
  8
_0-0_
  6
CONTINUOUS
 62
    7
 10
26123.804870455013
 20
42025.258061254623
 40
49.999992370605469
 50
90
 51
180
  0
ARC
  8
_0-0_
  6
CONTINUOUS
 62
    7
 10
23048.578307955009
 20
40560.259037817123
 40
150
 50
90
 51
180
  0
ARC
  8
_0-0_
  6
CONTINUOUS
 62
    7
 10
23078.588073580013
 20
40530.259037817123
 40
150
 50
90
 51
180
  0
ARC
  8
_0-0_
  6
CONTINUOUS
 62
    7
 10
23315.431823580009
 20
42825.260990942123
 40
150
 50
90
 51
191.3099365234375
  0
ARC
  8
_0-0_
  6
CONTINUOUS
 62
    7
 10
23345.441589205009
 20
42795.254155004623
 40
150
 50
90
 51
180
  0
ARC
  8
_0-0_
  6
CONTINUOUS
 62
    7
 10
23423.582214205013
 20
42270.258061254623
 40
45.555564880371094
 50
90
 51
180
  0
ARC
  8
_0-0_
  6
CONTINUOUS
 62
    7
 10
22748.582214205013
 20
46826.097905004623
 40
150
 50
206.1148681640625
 51
237.34416198730466
  0
ARC
  8
_0-0_
  6
CONTINUOUS
 62
    7
 10
64524.572448580009
 20
59911.742436254623
 40
350.00003051757813
 50
46.409088134765625
 51
136.51432800292969
  0
ARC
  8
_0-0_
  6
CONTINUOUS
 62
    7
 10
64524.572448580009
 20
59911.742436254623
 40
379.99996948242187
 50
42.054916381835881
 51
140.86851501464841
  0
ARC
  8
_0-0_
  6
CONTINUOUS
 62
    7
 10
64524.572448580009
 20
59911.742436254623
 40
350.00003051757813
 50
233.00270080566406
 51
323.10794067382812
  0
ARC
  8
_0-0_
  6
CONTINUOUS
 62
    7
 10
64524.572448580009
 20
59911.742436254623
 40
379.99996948242187
 50
228.64852905273437
 51
327.46211242675781
  0
ARC
  8
_0-0_
  6
CONTINUOUS
 62
    7
 10
65440.119323580009
 20
59791.590092504623
 40
75
 50
188.05532836914063
 51
8.0553283691406286
  0
CIRCLE
  8
_0-0_
  6
CONTINUOUS
 62
    7
 10
64524.572448580009
 20
59911.742436254623
 40
69.999984741210937
  0
ARC
  8
_0-0_
  6
CONTINUOUS
 62
    7
 10
62472.237487642516
 20
59031.301030004623
 40
379.99996948242187
 50
250.97737121582031
 51
24.617263793945327
  0
CIRCLE
  8
_0-0_
  6
CONTINUOUS
 62
    7
 10
62378.645690767509
 20
60112.390873754623
 40
34.936622619628906
  0
ARC
  8
_0-0_
  6
CONTINUOUS
 62
    7
 10
62451.452331392509
 20
59970.107670629623
 40
49.999988555908203
 50
309.18269348144531
 51
114.38923645019533
  0
ARC
  8
_0-0_
  6
CONTINUOUS
 62
    7
 10
61882.518737642509
 20
59712.156498754623
 40
49.999988555908203
 50
114.38923645019528
 51
201.5868225097656
  0
ARC
  8
_0-0_
  6
CONTINUOUS
 62
    7
 10
61944.091979830009
 20
59556.556889379623
 40
49.999988555908203
 50
201.5868225097656
 51
309.18269348144526
  0
ARC
  8
_0-0_
  6
CONTINUOUS
 62
    7
 10
62385.524597017516
 20
60101.64673312963
 40
76.389427185058594
 50
40.21533203125
 51
188.58445739746097
  0
ARC
  8
_0-0_
  6
CONTINUOUS
 62
    7
 10
62482.214050142509
 20
59015.099858129623
 40
131.43458557128906
 50
244.39399719238281
 51
19.92950439453125
  0
CIRCLE
  8
_0-0_
  6
CONTINUOUS
 62
    7
 10
62472.237487642516
 20
59031.301030004623
 40
64.94659423828125
  0
ARC
  8
_0-0_
  6
CONTINUOUS
 62
    7
 10
62472.237487642516
 20
59031.301030004623
 40
350.00003051757813
 50
253.09751892089844
 51
22.497116088867212
  0
CIRCLE
  8
_0-0_
  6
CONTINUOUS
 62
    7
 10
62985.497253267509
 20
60048.244389379623
 40
49.999988555908203
  0
CIRCLE
  8
_0-0_
  6
CONTINUOUS
 62
    7
 10
63029.273620455009
 20
59522.400639379623
 40
49.999988555908203
  0
ARC
  8
_0-0_
  6
CONTINUOUS
 62
    7
 10
56928.783874361259
 20
53250.881108129623
 40
64.999984741210937
 50
133.49000549316406
 51
313.49000549316406
  0
ARC
  8
_0-0_
  6
CONTINUOUS
 62
    7
 10
56928.783874361259
 20
53250.881108129623
 40
64.999984741210937
 50
313.49000549316406
 51
133.49000549316406
  0
ARC
  8
_0-0_
  6
CONTINUOUS
 62
    7
 10
55890.348327486266
 20
54706.123295629615
 40
75
 50
39.180007934570305
 51
219.18000793457031
  0
ARC
  8
_0-0_
  6
CONTINUOUS
 62
    7
 10
55779.435973970634
 20
54462.443608129615
 40
64.999984741210937
 50
133.49000549316406
 51
313.49000549316406
  0
CIRCLE
  8
_0-0_
  6
CONTINUOUS
 62
    7
 10
55883.271667330016
 20
54714.927983129623
 40
34.936622619628906
  0
ARC
  8
_0-0_
  6
CONTINUOUS
 62
    7
 10
60560.913268892509
 20
57347.627201879615
 40
65.406364440917969
 50
232.52229309082031
 51
43.077331542968771
  0
ARC
  8
_0-0_
  6
CONTINUOUS
 62
    7
 10
60061.846862642502
 20
57873.709233129623
 40
65.405899047851563
 50
43.897720336914063
 51
214.46258544921875
  0
ARC
  8
_0-0_
  6
CONTINUOUS
 62
    7
 10
55779.435973970634
 20
54462.443608129615
 40
64.999984741210937
 50
313.49000549316406
 51
133.49000549316406
  0
ARC
  8
_0-0_
  6
CONTINUOUS
 62
    7
 10
55525.988220064391
 20
54373.633061254623
 40
75
 50
43.490005493164063
 51
223.49000549316406
  0
CIRCLE
  8
_0-0_
  6
CONTINUOUS
 62
    7
 10
55515.665222017516
 20
54384.515873754615
 40
34.999992370605469
  0
ARC
  8
_0-0_
  6
CONTINUOUS
 62
    7
 10
52575.812896578056
 20
49121.510014379623
 40
64.999984741210937
 50
313.49000549316406
 51
133.49000549316406
  0
ARC
  8
_0-0_
  6
CONTINUOUS
 62
    7
 10
52575.812896578056
 20
49121.510014379623
 40
64.999984741210937
 50
133.49000549316406
 51
313.49000549316406
  0
ARC
  8
_0-0_
  6
CONTINUOUS
 62
    7
 10
51426.474792330009
 20
50333.084233129623
 40
64.999984741210937
 50
313.49000549316406
 51
133.49000549316406
  0
ARC
  8
_0-0_
  6
CONTINUOUS
 62
    7
 10
51173.017272798759
 20
50244.273686254623
 40
75
 50
43.490005493164063
 51
223.49000549316406
  0
CIRCLE
  8
_0-0_
  6
CONTINUOUS
 62
    7
 10
51162.694030611259
 20
50255.150639379623
 40
34.999992370605469
  0
ARC
  8
_0-0_
  6
CONTINUOUS
 62
    7
 10
51528.518981783134
 20
50581.504155004623
 40
75
 50
43.490005493164063
 51
223.49000549316406
  0
ARC
  8
_0-0_
  6
CONTINUOUS
 62
    7
 10
51426.474792330009
 20
50333.084233129623
 40
64.999984741210937
 50
133.49000549316406
 51
313.49000549316406
  0
CIRCLE
  8
_0-0_
  6
CONTINUOUS
 62
    7
 10
51518.185851900329
 20
50592.377201879615
 40
34.999992370605469
  0
ARC
  8
_0-0_
  6
CONTINUOUS
 62
    7
 10
46046.361022798759
 20
42927.453373754623
 40
64.999984741210937
 50
133.49000549316406
 51
313.49000549316406
  0
ARC
  8
_0-0_
  6
CONTINUOUS
 62
    7
 10
48222.841979830016
 20
44992.135990942123
 40
64.999984741210937
 50
313.49000549316406
 51
133.49000549316406
  0
ARC
  8
_0-0_
  6
CONTINUOUS
 62
    7
 10
48222.841979830016
 20
44992.135990942123
 40
64.999984741210937
 50
133.49000549316406
 51
313.49000549316406
  0
ARC
  8
_0-0_
  6
CONTINUOUS
 62
    7
 10
46046.361022798759
 20
42927.453373754623
 40
64.999984741210937
 50
313.49000549316406
 51
133.49000549316406
  0
ARC
  8
_0-0_
  6
CONTINUOUS
 62
    7
 10
44999.057311861259
 20
44387.452397192123
 40
75
 50
43.490005493164063
 51
223.49000549316406
  0
CIRCLE
  8
_0-0_
  6
CONTINUOUS
 62
    7
 10
44999.057311861259
 20
44387.452397192123
 40
34.999992370605469
  0
ARC
  8
_0-0_
  6
CONTINUOUS
 62
    7
 10
44897.032897798759
 20
44139.032475317115
 40
64.999984741210937
 50
133.49000549316406
 51
313.49000549316406
  0
ARC
  8
_0-0_
  6
CONTINUOUS
 62
    7
 10
46820.055847017509
 20
46114.906498754623
 40
75
 50
43.490005493164063
 51
223.49000549316406
  0
CIRCLE
  8
_0-0_
  6
CONTINUOUS
 62
    7
 10
46820.055847017509
 20
46114.906498754623
 40
34.999992370605469
  0
ARC
  8
_0-0_
  6
CONTINUOUS
 62
    7
 10
47073.513366548766
 20
46203.724858129623
 40
64.999984741210937
 50
313.49000549316406
 51
133.49000549316406
  0
ARC
  8
_0-0_
  6
CONTINUOUS
 62
    7
 10
47175.557800142516
 20
46452.138920629623
 40
75
 50
43.490005493164063
 51
223.49000549316406
  0
ARC
  8
_0-0_
  6
CONTINUOUS
 62
    7
 10
47073.513366548766
 20
46203.724858129623
 40
64.999984741210937
 50
133.49000549316406
 51
313.49000549316406
  0
CIRCLE
  8
_0-0_
  6
CONTINUOUS
 62
    7
 10
47165.224792330016
 20
46463.017826879623
 40
34.999992370605469
  0
ARC
  8
_0-0_
  6
CONTINUOUS
 62
    7
 10
44897.032897798759
 20
44139.032475317115
 40
64.999984741210937
 50
313.49000549316406
 51
133.49000549316406
  0
ARC
  8
_0-0_
  6
CONTINUOUS
 62
    7
 10
44643.575378267516
 20
44050.217045629623
 40
75
 50
43.490005493164063
 51
223.49000549316406
  0
CIRCLE
  8
_0-0_
  6
CONTINUOUS
 62
    7
 10
44633.242370455016
 20
44061.103764379615
 40
34.999992370605469
  0
ARC
  8
_0-0_
  6
CONTINUOUS
 62
    7
 10
40544.051940767509
 20
40009.660405004623
 40
64.999984741210937
 50
313.49000549316406
 51
133.49000549316406
  0
ARC
  8
_0-0_
  6
CONTINUOUS
 62
    7
 10
40544.051940767509
 20
40009.660405004623
 40
64.999984741210937
 50
133.49000549316406
 51
313.49000549316406
  0
ARC
  8
_0-0_
  6
CONTINUOUS
 62
    7
 10
39861.949401705009
 20
38331.236576879623
 40
199.99995422363281
 50
143.67109680175781
 51
223.49000549316406
  0
ARC
  8
_0-0_
  6
CONTINUOUS
 62
    7
 10
40574.734557955016
 20
38595.258061254623
 40
199.99995422363281
 50
303.30891418457031
 51
43.768188476562521
  0
ARC
  8
_0-0_
  6
CONTINUOUS
 62
    7
 10
39981.364440767516
 20
38205.366459692123
 40
199.99995422363281
 50
223.49000549316406
 51
303.30891418457031
  0
ARC
  8
_0-0_
  6
CONTINUOUS
 62
    7
 10
40281.344909517509
 20
38901.560795629623
 40
199.99995422363281
 50
43.768188476562557
 51
143.67109680175787
  0
ARC
  8
_0-0_
  6
CONTINUOUS
 62
    7
 10
41693.389831392509
 20
38798.084233129623
 40
64.999984741210937
 50
313.49000549316406
 51
133.49000549316406
  0
ARC
  8
_0-0_
  6
CONTINUOUS
 62
    7
 10
41487.124206392516
 20
38755.757084692123
 40
74.786750793457031
 50
241.25164794921875
 51
5.2978820800781463
  0
ARC
  8
_0-0_
  6
CONTINUOUS
 62
    7
 10
40490.917175142509
 20
39805.921147192123
 40
74.786750793457031
 50
81.682144165039063
 51
205.72836303710937
  0
ARC
  8
_0-0_
  6
CONTINUOUS
 62
    7
 10
41693.389831392509
 20
38798.084233129623
 40
64.999984741210937
 50
133.49000549316406
 51
313.49000549316406
  0
ARC
  8
_0-0_
  6
CONTINUOUS
 62
    7
 10
40646.095886080016
 20
40258.075444067123
 40
75
 50
43.490005493164063
 51
223.49000549316406
  0
CIRCLE
  8
_0-0_
  6
CONTINUOUS
 62
    7
 10
40635.772643892509
 20
40268.972905004623
 40
34.999992370605469
  0
CIRCLE
  8
_0-0_
  6
CONTINUOUS
 62
    7
 10
38216.742370455009
 20
36650.952397192123
 40
199.99995422363281
  0
CIRCLE
  8
_0-0_
  6
CONTINUOUS
 62
    7
 10
38216.742370455009
 20
36650.952397192123
 40
150
  0
ARC
  8
_0-0_
  6
CONTINUOUS
 62
    7
 10
38216.742370455009
 20
36650.952397192123
 40
199.99995422363281
 50
27.04158020019532
 51
75.240936279296889
  0
ENDSEC
  0
EOF
