  0
SECTION
  2
HEADER
  9
$EXTMIN
 10
0
 20
0
  9
$EXTMAX
 10
168000
 20
118800
  0
ENDSEC
  0
SECTION
  2
TABLES
  0
TABLE
  2
LTYPE
 70
     9
  0
LTYPE
  2
CONTINUOUS
 70
    64
  3
実線
 72
    65
 73
     0
 40
0.0
  0
LTYPE
  2
DASHED1
 70
    64
  3
--  --  --  --  --  --  --  --  
 72
    65
 73
     2
 40
2.5
 49
1.25
 49
-1.25
  0
LTYPE
  2
DASHED2
 70
    64
  3
----    ----    ----    ----    
 72
    65
 73
     2
 40
5.0
 49
2.5
 49
-2.5
  0
LTYPE
  2
DASHED3
 70
    64
  3
------  ------  ------  ------  
 72
    65
 73
     2
 40
5.0
 49
3.75
 49
-1.25
  0
LTYPE
  2
CENTER1
 70
    64
  3
----- - ----- - ----- - ----- - 
 72
    65
 73
     4
 40
10.0
 49
6.25
 49
-1.25
 49
1.25
 49
-1.25
  0
LTYPE
  2
CENTER2
 70
    64
  3
----------  --  ----------  --  
 72
    65
 73
     4
 40
20.0
 49
12.5
 49
-2.5
 49
2.5
 49
-2.5
  0
LTYPE
  2
PHANTOM1
 70
    64
  3
--- - - --- - - --- - - --- - - 
 72
    65
 73
     6
 40
10.0
 49
3.25
 49
-1.25
 49
1.25
 49
-1.25
 49
1.25
 49
-1.25
  0
LTYPE
  2
PHANTOM2
 70
    64
  3
--------  -  -  --------  -  -  
 72
    65
 73
     6
 40
20.0
 49
10.0
 49
-2.5
 49
1.25
 49
-2.5
 49
1.25
 49
-2.5
  0
LTYPE
  2
DOT
 70
    64
  3
-   -   -   -   -   -   -   -   
 72
    65
 73
     2
 40
2.5
 49
0.625
 49
-1.875
  0
ENDTAB
  0
TABLE
  2
STYLE
 70
    1
  0
STYLE
  2
STANDARD
 70
    64
 40
0.0
 41
1.0
 42
0.0
 50
0.0
 71
     0
  3
TXT
  4
BIGFONT
  0
ENDTAB
  0
TABLE
  2
LAYER
 70
    2
  0
LAYER
  2
0-0
 70
   64
 62
    7
  6
CONTINUOUS
  0
LAYER
  2
ADD_LINE
 70
   64
 62
    7
  6
CONTINUOUS
  0
ENDTAB
  0
ENDSEC
  0
SECTION
  2
ENTITIES
  0
LINE
  8
0-0
  6
CONTINUOUS
 62
    7
 10
31983.785
 20
97297.293
 11
55783.781
 21
97297.293
  0
LINE
  8
0-0
  6
CONTINUOUS
 62
    7
 10
57783.782
 20
98297.286
 11
30283.787
 21
98297.286
  0
LINE
  8
0-0
  6
CONTINUOUS
 62
    7
 10
30283.787
 20
99297.289
 11
57783.782
 21
99297.289
  0
LINE
  8
0-0
  6
CONTINUOUS
 62
    7
 10
30283.787
 20
99297.289
 11
29600.672
 21
99397.116
  0
LINE
  8
0-0
  6
CONTINUOUS
 62
    7
 10
29571.514
 20
99193.018
 11
30283.787
 21
98762.948
  0
LINE
  8
0-0
  6
CONTINUOUS
 62
    7
 10
29600.672
 20
99397.116
 11
29571.514
 21
99193.018
  0
LINE
  8
0-0
  6
CONTINUOUS
 62
    7
 10
30283.787
 20
99297.289
 11
30283.787
 21
98297.286
  0
LINE
  8
0-0
  6
CONTINUOUS
 62
    7
 10
30283.787
 20
98297.286
 11
31983.785
 21
97297.293
  0
LINE
  8
0-0
  6
CONTINUOUS
 62
    7
 10
30428.797
 20
99806.293
 11
30748.798
 21
99806.293
  0
LINE
  8
0-0
  6
CONTINUOUS
 62
    7
 10
30428.797
 20
99797.286
 11
30748.798
 21
99797.286
  0
LINE
  8
0-0
  6
CONTINUOUS
 62
    7
 10
30438.798
 20
99797.286
 11
30438.798
 21
99297.289
  0
LINE
  8
0-0
  6
CONTINUOUS
 62
    7
 10
30428.797
 20
99797.286
 11
30428.797
 21
99806.293
  0
LINE
  8
0-0
  6
CONTINUOUS
 62
    7
 10
51313.073
 20
99797.286
 11
51313.073
 21
99297.289
  0
LINE
  8
0-0
  6
CONTINUOUS
 62
    7
 10
51613.074
 20
99797.286
 11
51613.074
 21
99297.289
  0
LINE
  8
0-0
  6
CONTINUOUS
 62
    7
 10
51303.071
 20
99806.293
 11
51623.075
 21
99806.293
  0
LINE
  8
0-0
  6
CONTINUOUS
 62
    7
 10
51303.071
 20
99797.286
 11
51623.075
 21
99797.286
  0
LINE
  8
0-0
  6
CONTINUOUS
 62
    7
 10
51303.071
 20
99797.286
 11
51303.071
 21
99806.293
  0
LINE
  8
0-0
  6
CONTINUOUS
 62
    7
 10
51623.075
 20
99797.286
 11
51623.075
 21
99806.293
  0
LINE
  8
0-0
  6
CONTINUOUS
 62
    7
 10
31983.785
 20
99297.289
 11
31983.785
 21
101597.29
  0
LINE
  8
0-0
  6
CONTINUOUS
 62
    7
 10
33304.25
 20
101079.73
 11
33304.25
 21
100379.73
  0
LINE
  8
0-0
  6
CONTINUOUS
 62
    7
 10
33354.25
 20
101029.74
 11
33354.25
 21
100429.74
  0
LINE
  8
0-0
  6
CONTINUOUS
 62
    7
 10
34704.25
 20
100379.73
 11
34704.25
 21
101079.73
  0
LINE
  8
0-0
  6
CONTINUOUS
 62
    7
 10
34654.252
 20
100429.74
 11
34654.252
 21
101029.74
  0
LINE
  8
0-0
  6
CONTINUOUS
 62
    7
 10
33979.251
 20
100429.74
 11
33979.251
 21
101029.74
  0
LINE
  8
0-0
  6
CONTINUOUS
 62
    7
 10
34029.254
 20
101029.74
 11
34029.254
 21
100429.74
  0
LINE
  8
0-0
  6
CONTINUOUS
 62
    7
 10
33354.25
 20
101029.74
 11
34654.252
 21
101029.74
  0
LINE
  8
0-0
  6
CONTINUOUS
 62
    7
 10
33354.25
 20
100429.74
 11
34654.252
 21
100429.74
  0
LINE
  8
0-0
  6
CONTINUOUS
 62
    7
 10
33304.25
 20
100379.73
 11
34704.25
 21
100379.73
  0
LINE
  8
0-0
  6
CONTINUOUS
 62
    7
 10
33304.25
 20
101079.73
 11
34704.25
 21
101079.73
  0
LINE
  8
0-0
  6
CONTINUOUS
 62
    7
 10
35833.785
 20
99297.289
 11
35833.785
 21
101597.29
  0
LINE
  8
0-0
  6
CONTINUOUS
 62
    7
 10
40824.374
 20
98794.343
 11
40824.374
 21
99294.3
  0
LINE
  8
0-0
  6
CONTINUOUS
 62
    7
 10
30738.797
 20
99797.286
 11
30738.797
 21
99297.289
  0
LINE
  8
0-0
  6
CONTINUOUS
 62
    7
 10
30748.798
 20
99797.286
 11
30748.798
 21
99806.293
  0
LINE
  8
0-0
  6
CONTINUOUS
 62
    7
 10
31065.041
 20
99797.286
 11
31065.041
 21
99297.289
  0
LINE
  8
0-0
  6
CONTINUOUS
 62
    7
 10
31365.037
 20
99797.286
 11
31365.037
 21
99297.289
  0
LINE
  8
0-0
  6
CONTINUOUS
 62
    7
 10
31055.039
 20
99806.293
 11
31375.039
 21
99806.293
  0
LINE
  8
0-0
  6
CONTINUOUS
 62
    7
 10
31055.039
 20
99797.286
 11
31375.039
 21
99797.286
  0
LINE
  8
0-0
  6
CONTINUOUS
 62
    7
 10
31055.039
 20
99797.286
 11
31055.039
 21
99806.293
  0
LINE
  8
0-0
  6
CONTINUOUS
 62
    7
 10
31375.039
 20
99797.286
 11
31375.039
 21
99806.293
  0
LINE
  8
0-0
  6
CONTINUOUS
 62
    7
 10
32824.38
 20
98794.343
 11
32824.38
 21
99294.3
  0
LINE
  8
0-0
  6
CONTINUOUS
 62
    7
 10
36241.457
 20
99797.286
 11
36241.457
 21
99297.289
  0
LINE
  8
0-0
  6
CONTINUOUS
 62
    7
 10
36541.453
 20
99797.286
 11
36541.453
 21
99297.289
  0
LINE
  8
0-0
  6
CONTINUOUS
 62
    7
 10
36231.456
 20
99806.293
 11
36551.457
 21
99806.293
  0
LINE
  8
0-0
  6
CONTINUOUS
 62
    7
 10
36231.456
 20
99797.286
 11
36551.457
 21
99797.286
  0
LINE
  8
0-0
  6
CONTINUOUS
 62
    7
 10
36231.456
 20
99797.286
 11
36231.456
 21
99806.293
  0
LINE
  8
0-0
  6
CONTINUOUS
 62
    7
 10
36551.457
 20
99797.286
 11
36551.457
 21
99806.293
  0
LINE
  8
0-0
  6
CONTINUOUS
 62
    7
 10
36824.378
 20
98794.343
 11
36824.378
 21
99294.3
  0
LINE
  8
0-0
  6
CONTINUOUS
 62
    7
 10
44824.375
 20
98794.343
 11
44824.375
 21
99294.3
  0
LINE
  8
0-0
  6
CONTINUOUS
 62
    7
 10
48824.378
 20
98794.343
 11
48824.378
 21
99294.3
  0
LINE
  8
0-0
  6
CONTINUOUS
 62
    7
 10
30883.786
 20
101597.29
 11
36383.782
 21
101597.29
  0
LINE
  8
0-0
  6
CONTINUOUS
 62
    7
 10
30883.786
 20
101797.29
 11
36383.782
 21
101797.29
  0
LINE
  8
0-0
  6
CONTINUOUS
 62
    7
 10
30883.786
 20
102722.29
 11
36383.782
 21
102722.29
  0
LINE
  8
0-0
  6
CONTINUOUS
 62
    7
 10
30883.786
 20
102672.28
 11
36383.782
 21
102672.28
  0
LINE
  8
0-0
  6
CONTINUOUS
 62
    7
 10
36333.784
 20
102222.29
 11
35383.781
 21
102222.29
  0
LINE
  8
0-0
  6
CONTINUOUS
 62
    7
 10
36333.784
 20
102210.28
 11
35383.781
 21
102210.28
  0
LINE
  8
0-0
  6
CONTINUOUS
 62
    7
 10
35678.977
 20
101797.29
 11
35678.977
 21
107297.28
  0
LINE
  8
0-0
  6
CONTINUOUS
 62
    7
 10
35578.977
 20
101797.29
 11
35578.977
 21
107297.28
  0
LINE
  8
0-0
  6
CONTINUOUS
 62
    7
 10
34441.894
 20
101797.29
 11
35577.673
 21
105600.26
  0
LINE
  8
0-0
  6
CONTINUOUS
 62
    7
 10
34555.608
 20
101797.29
 11
35578.977
 21
105223.86
  0
LINE
  8
0-0
  6
CONTINUOUS
 62
    7
 10
30883.786
 20
101797.29
 11
30883.786
 21
101597.29
  0
LINE
  8
0-0
  6
CONTINUOUS
 62
    7
 10
30883.786
 20
101797.29
 11
30883.786
 21
102697.29
  0
LINE
  8
0-0
  6
CONTINUOUS
 62
    7
 10
30883.786
 20
101822.28
 11
30883.786
 21
102722.29
  0
LINE
  8
0-0
  6
CONTINUOUS
 62
    7
 10
30933.787
 20
101797.29
 11
30933.787
 21
102672.28
  0
LINE
  8
0-0
  6
CONTINUOUS
 62
    7
 10
31933.785
 20
101797.29
 11
31933.785
 21
102672.28
  0
LINE
  8
0-0
  6
CONTINUOUS
 62
    7
 10
31883.785
 20
101797.29
 11
31883.785
 21
102672.28
  0
LINE
  8
0-0
  6
CONTINUOUS
 62
    7
 10
31883.785
 20
101822.28
 11
31883.785
 21
102672.28
  0
LINE
  8
0-0
  6
CONTINUOUS
 62
    7
 10
32883.785
 20
101797.29
 11
32883.785
 21
102672.28
  0
LINE
  8
0-0
  6
CONTINUOUS
 62
    7
 10
32933.783
 20
101797.29
 11
32933.783
 21
102672.28
  0
LINE
  8
0-0
  6
CONTINUOUS
 62
    7
 10
34333.783
 20
102672.28
 11
34333.783
 21
101797.29
  0
LINE
  8
0-0
  6
CONTINUOUS
 62
    7
 10
35333.784
 20
101797.29
 11
35333.784
 21
102672.28
  0
LINE
  8
0-0
  6
CONTINUOUS
 62
    7
 10
31883.785
 20
102222.29
 11
30933.787
 21
102222.29
  0
LINE
  8
0-0
  6
CONTINUOUS
 62
    7
 10
31883.785
 20
102210.28
 11
30933.787
 21
102210.28
  0
LINE
  8
0-0
  6
CONTINUOUS
 62
    7
 10
32883.785
 20
102222.29
 11
31933.785
 21
102222.29
  0
LINE
  8
0-0
  6
CONTINUOUS
 62
    7
 10
32883.785
 20
102210.28
 11
31933.785
 21
102210.28
  0
LINE
  8
0-0
  6
CONTINUOUS
 62
    7
 10
34333.783
 20
102222.29
 11
32933.783
 21
102222.29
  0
LINE
  8
0-0
  6
CONTINUOUS
 62
    7
 10
34333.783
 20
102210.28
 11
32933.783
 21
102210.28
  0
LINE
  8
0-0
  6
CONTINUOUS
 62
    7
 10
35333.784
 20
102222.29
 11
34383.785
 21
102222.29
  0
LINE
  8
0-0
  6
CONTINUOUS
 62
    7
 10
35333.784
 20
102210.28
 11
34383.785
 21
102210.28
  0
LINE
  8
0-0
  6
CONTINUOUS
 62
    7
 10
35383.781
 20
102672.28
 11
35383.781
 21
101797.29
  0
LINE
  8
0-0
  6
CONTINUOUS
 62
    7
 10
34383.785
 20
101797.29
 11
34383.785
 21
102672.28
  0
LINE
  8
0-0
  6
CONTINUOUS
 62
    7
 10
35578.977
 20
107068.29
 11
35333.885
 21
107068.29
  0
LINE
  8
0-0
  6
CONTINUOUS
 62
    7
 10
35333.885
 20
107037.88
 11
35578.977
 21
107037.88
  0
LINE
  8
0-0
  6
CONTINUOUS
 62
    7
 10
35333.885
 20
107068.29
 11
35333.885
 21
107037.88
  0
LINE
  8
0-0
  6
CONTINUOUS
 62
    7
 10
35568.973
 20
107297.28
 11
35568.973
 21
107312.54
  0
LINE
  8
0-0
  6
CONTINUOUS
 62
    7
 10
35688.976
 20
107297.28
 11
35688.976
 21
107312.54
  0
LINE
  8
0-0
  6
CONTINUOUS
 62
    7
 10
35568.973
 20
107312.54
 11
35688.976
 21
107312.54
  0
LINE
  8
0-0
  6
CONTINUOUS
 62
    7
 10
35568.973
 20
107297.28
 11
35688.976
 21
107297.28
  0
LINE
  8
0-0
  6
CONTINUOUS
 62
    7
 10
35678.977
 20
107374.29
 11
35578.977
 21
107374.29
  0
LINE
  8
0-0
  6
CONTINUOUS
 62
    7
 10
35578.977
 20
107374.29
 11
35578.977
 21
107323
  0
LINE
  8
0-0
  6
CONTINUOUS
 62
    7
 10
35678.977
 20
107374.29
 11
35678.977
 21
107323
  0
LINE
  8
0-0
  6
CONTINUOUS
 62
    7
 10
35578.977
 20
107323
 11
35678.977
 21
107323
  0
LINE
  8
0-0
  6
CONTINUOUS
 62
    7
 10
35598.151
 20
107323
 11
35598.151
 21
107312.54
  0
LINE
  8
0-0
  6
CONTINUOUS
 62
    7
 10
35658.046
 20
107323
 11
35658.046
 21
107312.54
  0
LINE
  8
0-0
  6
CONTINUOUS
 62
    7
 10
36383.782
 20
101797.29
 11
36383.782
 21
101597.29
  0
LINE
  8
0-0
  6
CONTINUOUS
 62
    7
 10
36383.782
 20
101797.29
 11
36383.782
 21
102697.29
  0
LINE
  8
0-0
  6
CONTINUOUS
 62
    7
 10
36383.782
 20
101822.28
 11
36383.782
 21
102722.29
  0
LINE
  8
0-0
  6
CONTINUOUS
 62
    7
 10
36333.784
 20
101797.29
 11
36333.784
 21
102672.28
  0
LINE
  8
0-0
  6
CONTINUOUS
 62
    7
 10
55783.781
 20
97297.293
 11
57783.782
 21
98297.286
  0
LINE
  8
0-0
  6
CONTINUOUS
 62
    7
 10
55886.34
 20
99806.293
 11
56206.344
 21
99806.293
  0
LINE
  8
0-0
  6
CONTINUOUS
 62
    7
 10
55886.34
 20
99797.286
 11
56206.344
 21
99797.286
  0
LINE
  8
0-0
  6
CONTINUOUS
 62
    7
 10
55896.341
 20
99797.286
 11
55896.341
 21
99297.289
  0
LINE
  8
0-0
  6
CONTINUOUS
 62
    7
 10
55886.34
 20
99797.286
 11
55886.34
 21
99806.293
  0
LINE
  8
0-0
  6
CONTINUOUS
 62
    7
 10
56196.337
 20
99797.286
 11
56196.337
 21
99297.289
  0
LINE
  8
0-0
  6
CONTINUOUS
 62
    7
 10
56522.582
 20
99797.286
 11
56522.582
 21
99297.289
  0
LINE
  8
0-0
  6
CONTINUOUS
 62
    7
 10
56822.588
 20
99797.286
 11
56822.588
 21
99297.289
  0
LINE
  8
0-0
  6
CONTINUOUS
 62
    7
 10
56206.344
 20
99797.286
 11
56206.344
 21
99806.293
  0
LINE
  8
0-0
  6
CONTINUOUS
 62
    7
 10
56512.585
 20
99806.293
 11
56832.584
 21
99806.293
  0
LINE
  8
0-0
  6
CONTINUOUS
 62
    7
 10
56512.585
 20
99797.286
 11
56832.584
 21
99797.286
  0
LINE
  8
0-0
  6
CONTINUOUS
 62
    7
 10
56512.585
 20
99797.286
 11
56512.585
 21
99806.293
  0
LINE
  8
0-0
  6
CONTINUOUS
 62
    7
 10
56832.584
 20
99797.286
 11
56832.584
 21
99806.293
  0
LINE
  8
0-0
  6
CONTINUOUS
 62
    7
 10
56824.379
 20
98794.343
 11
56824.379
 21
99294.3
  0
LINE
  8
0-0
  6
CONTINUOUS
 62
    7
 10
52824.376
 20
98794.343
 11
52824.376
 21
99294.3
  0
LINE
  8
0-0
  6
CONTINUOUS
 62
    7
 10
52853.782
 20
100097.29
 11
54413.781
 21
100097.29
  0
LINE
  8
0-0
  6
CONTINUOUS
 62
    7
 10
52733.783
 20
99722.292
 11
54533.784
 21
99722.292
  0
LINE
  8
0-0
  6
CONTINUOUS
 62
    7
 10
52733.783
 20
99672.289
 11
52733.783
 21
99722.292
  0
LINE
  8
0-0
  6
CONTINUOUS
 62
    7
 10
52853.782
 20
99722.292
 11
52853.782
 21
100097.29
  0
LINE
  8
0-0
  6
CONTINUOUS
 62
    7
 10
52733.783
 20
99672.289
 11
54533.052
 21
99672.289
  0
LINE
  8
0-0
  6
CONTINUOUS
 62
    7
 10
54533.784
 20
99722.114
 11
54533.784
 21
99672.289
  0
LINE
  8
0-0
  6
CONTINUOUS
 62
    7
 10
54413.781
 20
99722.292
 11
54413.781
 21
100097.29
  0
LINE
  8
0-0
  6
CONTINUOUS
 62
    7
 10
53633.781
 20
99672.289
 11
53633.781
 21
99297.289
  0
LINE
  8
0-0
  6
CONTINUOUS
 62
    7
 10
53633.781
 20
100097.29
 11
53633.781
 21
99913.761
  0
LINE
  8
0-0
  6
CONTINUOUS
 62
    7
 10
52733.783
 20
99672.289
 11
52316.214
 21
99297.289
  0
LINE
  8
0-0
  6
CONTINUOUS
 62
    7
 10
54533.784
 20
99672.289
 11
54951.354
 21
99297.289
  0
LINE
  8
0-0
  6
CONTINUOUS
 62
    7
 10
53380.982
 20
99672.289
 11
53260.766
 21
99297.289
  0
LINE
  8
0-0
  6
CONTINUOUS
 62
    7
 10
52814.251
 20
99297.289
 11
53080.442
 21
99672.289
  0
LINE
  8
0-0
  6
CONTINUOUS
 62
    7
 10
52853.782
 20
99352.983
 11
52853.782
 21
99672.289
  0
LINE
  8
0-0
  6
CONTINUOUS
 62
    7
 10
53886.586
 20
99672.289
 11
54006.802
 21
99297.289
  0
LINE
  8
0-0
  6
CONTINUOUS
 62
    7
 10
54453.317
 20
99297.289
 11
54187.126
 21
99672.289
  0
LINE
  8
0-0
  6
CONTINUOUS
 62
    7
 10
54413.781
 20
99352.983
 11
54413.781
 21
99672.289
  0
LINE
  8
0-0
  6
CONTINUOUS
 62
    7
 10
57783.782
 20
99297.289
 11
57783.782
 21
98297.286
  0
LINE
  8
0-0
  6
CONTINUOUS
 62
    7
 10
54372.909
 20
100097.29
 11
52872.914
 21
100097.29
  0
LINE
  8
0-0
  6
CONTINUOUS
 62
    7
 10
53633.781
 20
100145.44
 11
53633.781
 21
99875.269
  0
LINE
  8
0-0
  6
CONTINUOUS
 62
    7
 10
55089.4
 20
101647.82
 11
53529.401
 21
101647.82
  0
LINE
  8
0-0
  6
CONTINUOUS
 62
    7
 10
54309.401
 20
101647.82
 11
54309.401
 21
101464.29
  0
LINE
  8
0-0
  6
CONTINUOUS
 62
    7
 10
51065.267
 20
103657.83
 11
51065.267
 21
104586
  0
LINE
  8
0-0
  6
CONTINUOUS
 62
    7
 10
51195.272
 20
103657.83
 11
51195.272
 21
104586
  0
LINE
  8
0-0
  6
CONTINUOUS
 62
    7
 10
51327.345
 20
105764.27
 11
53098.871
 21
103655.3
  0
LINE
  8
0-0
  6
CONTINUOUS
 62
    7
 10
51227.8
 20
105680.66
 11
52999.331
 21
103571.69
  0
LINE
  8
0-0
  6
CONTINUOUS
 62
    7
 10
55090.271
 20
101837.83
 11
50770.269
 21
101837.83
  0
LINE
  8
0-0
  6
CONTINUOUS
 62
    7
 10
50735.271
 20
102167.82
 11
55796.712
 21
102167.82
  0
LINE
  8
0-0
  6
CONTINUOUS
 62
    7
 10
54074.397
 20
103660.66
 11
55466.024
 21
103660.66
  0
LINE
  8
0-0
  6
CONTINUOUS
 62
    7
 10
54074.397
 20
103646.27
 11
55471.294
 21
103646.27
  0
LINE
  8
0-0
  6
CONTINUOUS
 62
    7
 10
54124.529
 20
103787.82
 11
55419.401
 21
103787.82
  0
LINE
  8
0-0
  6
CONTINUOUS
 62
    7
 10
53570.273
 20
101807.82
 11
55070.268
 21
101807.82
  0
LINE
  8
0-0
  6
CONTINUOUS
 62
    7
 10
53570.273
 20
101767.82
 11
55070.268
 21
101767.82
  0
LINE
  8
0-0
  6
CONTINUOUS
 62
    7
 10
53570.273
 20
101647.82
 11
55070.268
 21
101647.82
  0
LINE
  8
0-0
  6
CONTINUOUS
 62
    7
 10
55070.145
 20
101897.82
 11
50735.271
 21
101897.82
  0
LINE
  8
0-0
  6
CONTINUOUS
 62
    7
 10
55070.145
 20
102279.1
 11
50735.271
 21
102279.1
  0
LINE
  8
0-0
  6
CONTINUOUS
 62
    7
 10
55065.676
 20
102347.82
 11
50735.271
 21
102347.82
  0
LINE
  8
0-0
  6
CONTINUOUS
 62
    7
 10
54736.512
 20
103247.82
 11
50270.268
 21
103247.82
  0
LINE
  8
0-0
  6
CONTINUOUS
 62
    7
 10
55001.079
 20
102319.98
 11
54686.573
 21
103177.82
  0
LINE
  8
0-0
  6
CONTINUOUS
 62
    7
 10
55043.307
 20
102367.82
 11
55290.094
 21
102367.82
  0
LINE
  8
0-0
  6
CONTINUOUS
 62
    7
 10
55166.696
 20
102244.43
 11
55166.696
 21
102491.22
  0
LINE
  8
0-0
  6
CONTINUOUS
 62
    7
 10
55640.271
 20
101837.83
 11
55918.863
 21
102425.5
  0
LINE
  8
0-0
  6
CONTINUOUS
 62
    7
 10
55556.008
 20
102414.24
 11
55556.008
 21
102481.32
  0
LINE
  8
0-0
  6
CONTINUOUS
 62
    7
 10
55556.008
 20
102481.32
 11
55698.533
 21
102481.32
  0
LINE
  8
0-0
  6
CONTINUOUS
 62
    7
 10
55698.533
 20
102481.32
 11
55698.533
 21
102414.24
  0
LINE
  8
0-0
  6
CONTINUOUS
 62
    7
 10
55698.533
 20
102414.24
 11
55556.008
 21
102414.24
  0
LINE
  8
0-0
  6
CONTINUOUS
 62
    7
 10
55918.863
 20
102425.5
 11
55419.401
 21
103787.82
  0
LINE
  8
0-0
  6
CONTINUOUS
 62
    7
 10
55544.452
 20
101925.96
 11
55544.452
 21
101935.5
  0
LINE
  8
0-0
  6
CONTINUOUS
 62
    7
 10
55544.452
 20
101935.5
 11
55613.824
 21
101935.5
  0
LINE
  8
0-0
  6
CONTINUOUS
 62
    7
 10
55613.824
 20
101935.5
 11
55613.824
 21
101925.96
  0
LINE
  8
0-0
  6
CONTINUOUS
 62
    7
 10
55613.824
 20
101925.96
 11
55544.452
 21
101925.96
  0
LINE
  8
0-0
  6
CONTINUOUS
 62
    7
 10
55090.271
 20
101837.83
 11
55640.271
 21
101837.83
  0
LINE
  8
0-0
  6
CONTINUOUS
 62
    7
 10
55090.271
 20
101807.82
 11
55090.271
 21
101837.83
  0
LINE
  8
0-0
  6
CONTINUOUS
 62
    7
 10
55070.268
 20
101807.82
 11
55090.271
 21
101807.82
  0
LINE
  8
0-0
  6
CONTINUOUS
 62
    7
 10
54999.397
 20
101767.82
 11
54999.397
 21
101807.82
  0
LINE
  8
0-0
  6
CONTINUOUS
 62
    7
 10
55070.268
 20
101767.82
 11
55070.268
 21
101807.82
  0
LINE
  8
0-0
  6
CONTINUOUS
 62
    7
 10
55070.268
 20
101647.82
 11
55070.268
 21
101767.82
  0
LINE
  8
0-0
  6
CONTINUOUS
 62
    7
 10
55070.145
 20
101837.83
 11
55070.145
 21
102337.83
  0
LINE
  8
0-0
  6
CONTINUOUS
 62
    7
 10
55001.079
 20
101826.45
 11
55001.079
 21
102319.98
  0
LINE
  8
0-0
  6
CONTINUOUS
 62
    7
 10
55070.145
 20
101997.82
 11
55370.146
 21
101997.82
  0
LINE
  8
0-0
  6
CONTINUOUS
 62
    7
 10
55370.146
 20
101997.82
 11
55370.146
 21
101969.75
  0
LINE
  8
0-0
  6
CONTINUOUS
 62
    7
 10
55370.146
 20
101969.75
 11
55070.145
 21
101909.22
  0
LINE
  8
0-0
  6
CONTINUOUS
 62
    7
 10
55238.993
 20
102335.24
 11
55176.009
 21
102195.49
  0
LINE
  8
0-0
  6
CONTINUOUS
 62
    7
 10
55181.275
 20
102132.91
 11
55232.257
 21
102056.97
  0
LINE
  8
0-0
  6
CONTINUOUS
 62
    7
 10
55127.358
 20
102436.67
 11
55045.272
 21
102389.77
  0
LINE
  8
0-0
  6
CONTINUOUS
 62
    7
 10
55135.533
 20
101922.41
 11
55070.145
 21
101884.6
  0
LINE
  8
0-0
  6
CONTINUOUS
 62
    7
 10
55070.145
 20
102337.83
 11
54736.512
 21
103247.82
  0
LINE
  8
0-0
  6
CONTINUOUS
 62
    7
 10
55185.259
 20
103080.64
 11
55185.259
 21
103570.43
  0
LINE
  8
0-0
  6
CONTINUOUS
 62
    7
 10
55410.924
 20
103570.43
 11
54823.952
 21
103570.43
  0
LINE
  8
0-0
  6
CONTINUOUS
 62
    7
 10
54773.949
 20
103520.44
 11
54773.949
 21
103334.18
  0
LINE
  8
0-0
  6
CONTINUOUS
 62
    7
 10
54852.224
 20
103111.8
 11
54777.008
 21
103316.96
  0
LINE
  8
0-0
  6
CONTINUOUS
 62
    7
 10
55601.373
 20
103146.22
 11
55457.868
 21
103537.65
  0
LINE
  8
0-0
  6
CONTINUOUS
 62
    7
 10
55554.429
 20
103079.01
 11
54899.169
 21
103079.01
  0
LINE
  8
0-0
  6
CONTINUOUS
 62
    7
 10
55554.429
 20
103054.01
 11
54899.169
 21
103054.01
  0
LINE
  8
0-0
  6
CONTINUOUS
 62
    7
 10
54828.752
 20
103103.2
 11
54753.536
 21
103308.35
  0
LINE
  8
0-0
  6
CONTINUOUS
 62
    7
 10
54748.953
 20
103520.44
 11
54748.953
 21
103334.18
  0
LINE
  8
0-0
  6
CONTINUOUS
 62
    7
 10
55410.924
 20
103595.43
 11
54823.952
 21
103595.43
  0
LINE
  8
0-0
  6
CONTINUOUS
 62
    7
 10
55624.845
 20
103154.82
 11
55481.34
 21
103546.25
  0
LINE
  8
0-0
  6
CONTINUOUS
 62
    7
 10
55733.907
 20
102857.34
 11
55698.785
 21
102953.15
  0
LINE
  8
0-0
  6
CONTINUOUS
 62
    7
 10
55651.841
 20
102985.93
 11
55488.313
 21
102985.93
  0
LINE
  8
0-0
  6
CONTINUOUS
 62
    7
 10
55438.315
 20
102714.24
 11
55438.315
 21
102935.93
  0
LINE
  8
0-0
  6
CONTINUOUS
 62
    7
 10
55635.564
 20
102664.25
 11
55488.313
 21
102664.25
  0
LINE
  8
0-0
  6
CONTINUOUS
 62
    7
 10
55731.264
 20
102799.4
 11
55680.742
 21
102692.82
  0
LINE
  8
0-0
  6
CONTINUOUS
 62
    7
 10
55714.037
 20
102838.92
 11
55675.313
 21
102944.54
  0
LINE
  8
0-0
  6
CONTINUOUS
 62
    7
 10
55713.157
 20
102819.61
 11
55658.131
 21
102703.53
  0
LINE
  8
0-0
  6
CONTINUOUS
 62
    7
 10
55635.545
 20
102689.25
 11
55488.313
 21
102689.25
  0
LINE
  8
0-0
  6
CONTINUOUS
 62
    7
 10
55651.841
 20
102960.93
 11
55488.313
 21
102960.93
  0
LINE
  8
0-0
  6
CONTINUOUS
 62
    7
 10
55463.317
 20
102714.24
 11
55463.317
 21
102935.93
  0
LINE
  8
0-0
  6
CONTINUOUS
 62
    7
 10
50770.269
 20
101807.82
 11
53570.273
 21
101807.82
  0
LINE
  8
0-0
  6
CONTINUOUS
 62
    7
 10
52100.268
 20
102250.83
 11
53780.271
 21
102250.83
  0
LINE
  8
0-0
  6
CONTINUOUS
 62
    7
 10
50770.269
 20
101807.82
 11
50770.269
 21
101837.83
  0
LINE
  8
0-0
  6
CONTINUOUS
 62
    7
 10
50770.269
 20
101837.83
 11
50770.269
 21
103247.82
  0
LINE
  8
0-0
  6
CONTINUOUS
 62
    7
 10
50770.269
 20
101837.83
 11
50270.268
 21
101837.83
  0
LINE
  8
0-0
  6
CONTINUOUS
 62
    7
 10
50270.268
 20
101837.83
 11
50270.268
 21
103247.82
  0
LINE
  8
0-0
  6
CONTINUOUS
 62
    7
 10
50735.271
 20
101837.83
 11
50735.271
 21
103247.82
  0
LINE
  8
0-0
  6
CONTINUOUS
 62
    7
 10
50455.268
 20
101837.83
 11
50455.268
 21
102537.83
  0
LINE
  8
0-0
  6
CONTINUOUS
 62
    7
 10
50455.268
 20
102537.83
 11
50735.271
 21
102537.83
  0
LINE
  8
0-0
  6
CONTINUOUS
 62
    7
 10
50455.268
 20
102242.82
 11
50735.271
 21
102242.82
  0
LINE
  8
0-0
  6
CONTINUOUS
 62
    7
 10
50455.268
 20
102132.82
 11
50735.271
 21
102132.82
  0
LINE
  8
0-0
  6
DASHED1
 62
    7
 10
50455.268
 20
102187.83
 11
50735.271
 21
102187.83
  0
LINE
  8
0-0
  6
CONTINUOUS
 62
    7
 10
50467.497
 20
102242.82
 11
50467.497
 21
102132.82
  0
LINE
  8
0-0
  6
CONTINUOUS
 62
    7
 10
50483.234
 20
102242.82
 11
50483.234
 21
102132.82
  0
LINE
  8
0-0
  6
CONTINUOUS
 62
    7
 10
50455.268
 20
102417.82
 11
50735.271
 21
102417.82
  0
LINE
  8
0-0
  6
CONTINUOUS
 62
    7
 10
50455.268
 20
102307.83
 11
50735.271
 21
102307.83
  0
LINE
  8
0-0
  6
DASHED1
 62
    7
 10
50455.268
 20
102362.82
 11
50735.271
 21
102362.82
  0
LINE
  8
0-0
  6
CONTINUOUS
 62
    7
 10
50467.497
 20
102417.82
 11
50467.497
 21
102307.83
  0
LINE
  8
0-0
  6
CONTINUOUS
 62
    7
 10
50483.234
 20
102417.82
 11
50483.234
 21
102307.83
  0
LINE
  8
0-0
  6
CONTINUOUS
 62
    7
 10
50724.27
 20
102307.83
 11
50724.27
 21
102417.82
  0
LINE
  8
0-0
  6
CONTINUOUS
 62
    7
 10
50700.838
 20
102307.83
 11
50700.838
 21
102417.82
  0
LINE
  8
0-0
  6
CONTINUOUS
 62
    7
 10
50689.851
 20
102307.83
 11
50689.851
 21
102417.82
  0
LINE
  8
0-0
  6
CONTINUOUS
 62
    7
 10
50679.132
 20
102307.83
 11
50679.132
 21
102417.82
  0
LINE
  8
0-0
  6
CONTINUOUS
 62
    7
 10
50455.268
 20
102067.82
 11
50735.271
 21
102067.82
  0
LINE
  8
0-0
  6
CONTINUOUS
 62
    7
 10
50455.268
 20
101957.82
 11
50735.271
 21
101957.82
  0
LINE
  8
0-0
  6
DASHED1
 62
    7
 10
50455.268
 20
102012.82
 11
50735.271
 21
102012.82
  0
LINE
  8
0-0
  6
CONTINUOUS
 62
    7
 10
50467.497
 20
102067.82
 11
50467.497
 21
101957.82
  0
LINE
  8
0-0
  6
CONTINUOUS
 62
    7
 10
50483.234
 20
102067.82
 11
50483.234
 21
101957.82
  0
LINE
  8
0-0
  6
CONTINUOUS
 62
    7
 10
50724.27
 20
102067.82
 11
50724.27
 21
101957.82
  0
LINE
  8
0-0
  6
CONTINUOUS
 62
    7
 10
50700.838
 20
102067.82
 11
50700.838
 21
101957.82
  0
LINE
  8
0-0
  6
CONTINUOUS
 62
    7
 10
50689.851
 20
102067.82
 11
50689.851
 21
101957.82
  0
LINE
  8
0-0
  6
CONTINUOUS
 62
    7
 10
50679.132
 20
102067.82
 11
50679.132
 21
101957.82
  0
LINE
  8
0-0
  6
CONTINUOUS
 62
    7
 10
50550.27
 20
102506.71
 11
50550.27
 21
102417.82
  0
LINE
  8
0-0
  6
CONTINUOUS
 62
    7
 10
50550.27
 20
102299.91
 11
50550.27
 21
102253.72
  0
LINE
  8
0-0
  6
CONTINUOUS
 62
    7
 10
50550.27
 20
101868.94
 11
50550.27
 21
101957.82
  0
LINE
  8
0-0
  6
CONTINUOUS
 62
    7
 10
50550.27
 20
102075.74
 11
50550.27
 21
102121.92
  0
LINE
  8
0-0
  6
CONTINUOUS
 62
    7
 10
50480.27
 20
103190.84
 11
50480.27
 21
102590.15
  0
LINE
  8
0-0
  6
CONTINUOUS
 62
    7
 10
50359.296
 20
103390.46
 11
50294.635
 21
103247.82
  0
LINE
  8
0-0
  6
CONTINUOUS
 62
    7
 10
50471.57
 20
103319.81
 11
50411.219
 21
103247.82
  0
LINE
  8
0-0
  6
CONTINUOUS
 62
    7
 10
50946.951
 20
103247.82
 11
50946.951
 21
103298.19
  0
LINE
  8
0-0
  6
CONTINUOUS
 62
    7
 10
50813.309
 20
103247.82
 11
50813.309
 21
103302.82
  0
LINE
  8
0-0
  6
CONTINUOUS
 62
    7
 10
50622.449
 20
103364.03
 11
50622.449
 21
103247.82
  0
LINE
  8
0-0
  6
CONTINUOUS
 62
    7
 10
50756.086
 20
103247.82
 11
50756.086
 21
103364.03
  0
LINE
  8
0-0
  6
CONTINUOUS
 62
    7
 10
50656.19
 20
103364.03
 11
50656.19
 21
103295.45
  0
LINE
  8
0-0
  6
CONTINUOUS
 62
    7
 10
50722.122
 20
103364.03
 11
50722.122
 21
103295.92
  0
LINE
  8
0-0
  6
CONTINUOUS
 62
    7
 10
50622.449
 20
103364.03
 11
50656.19
 21
103364.03
  0
LINE
  8
0-0
  6
CONTINUOUS
 62
    7
 10
50722.122
 20
103364.03
 11
50756.086
 21
103364.03
  0
LINE
  8
0-0
  6
CONTINUOUS
 62
    7
 10
51220.273
 20
103247.82
 11
51220.273
 21
101837.83
  0
LINE
  8
0-0
  6
CONTINUOUS
 62
    7
 10
51220.273
 20
103247.82
 11
51220.273
 21
103297.82
  0
LINE
  8
0-0
  6
CONTINUOUS
 62
    7
 10
51220.273
 20
103297.82
 11
52070.269
 21
103297.82
  0
LINE
  8
0-0
  6
CONTINUOUS
 62
    7
 10
52070.269
 20
102167.82
 11
52070.269
 21
103297.82
  0
LINE
  8
0-0
  6
CONTINUOUS
 62
    7
 10
51287.968
 20
102250.83
 11
51287.968
 21
103177.82
  0
LINE
  8
0-0
  6
CONTINUOUS
 62
    7
 10
52100.268
 20
102250.83
 11
52100.268
 21
103177.82
  0
LINE
  8
0-0
  6
CONTINUOUS
 62
    7
 10
52070.269
 20
103167.81
 11
52100.268
 21
103167.81
  0
LINE
  8
0-0
  6
CONTINUOUS
 62
    7
 10
52070.269
 20
102258.25
 11
52100.268
 21
102258.25
  0
LINE
  8
0-0
  6
CONTINUOUS
 62
    7
 10
51287.968
 20
102250.83
 11
52070.269
 21
102250.83
  0
LINE
  8
0-0
  6
CONTINUOUS
 62
    7
 10
51287.968
 20
103177.82
 11
52070.269
 21
103177.82
  0
LINE
  8
0-0
  6
CONTINUOUS
 62
    7
 10
51055.27
 20
103657.83
 11
51055.27
 21
103457.83
  0
LINE
  8
0-0
  6
CONTINUOUS
 62
    7
 10
51205.268
 20
103657.83
 11
51205.268
 21
103457.83
  0
LINE
  8
0-0
  6
CONTINUOUS
 62
    7
 10
51055.27
 20
103457.83
 11
51205.268
 21
103457.83
  0
LINE
  8
0-0
  6
CONTINUOUS
 62
    7
 10
51055.27
 20
103657.83
 11
51205.268
 21
103657.83
  0
LINE
  8
0-0
  6
CONTINUOUS
 62
    7
 10
51065.267
 20
103247.82
 11
51065.267
 21
103457.83
  0
LINE
  8
0-0
  6
CONTINUOUS
 62
    7
 10
51195.272
 20
103247.82
 11
51195.272
 21
103457.83
  0
LINE
  8
0-0
  6
CONTINUOUS
 62
    7
 10
51287.968
 20
103177.82
 11
51643.653
 21
102849.88
  0
LINE
  8
0-0
  6
CONTINUOUS
 62
    7
 10
50270.268
 20
102797.82
 11
51623.318
 21
102797.82
  0
LINE
  8
0-0
  6
CONTINUOUS
 62
    7
 10
51687.969
 20
103177.82
 11
52152.112
 21
102749.87
  0
LINE
  8
0-0
  6
CONTINUOUS
 62
    7
 10
50270.268
 20
102697.82
 11
52131.777
 21
102697.82
  0
LINE
  8
0-0
  6
CONTINUOUS
 62
    7
 10
52100.268
 20
103177.82
 11
52100.268
 21
103167.81
  0
LINE
  8
0-0
  6
CONTINUOUS
 62
    7
 10
52100.268
 20
103167.81
 11
52070.269
 21
103167.81
  0
LINE
  8
0-0
  6
CONTINUOUS
 62
    7
 10
52070.269
 20
103167.81
 11
52070.269
 21
103177.82
  0
LINE
  8
0-0
  6
CONTINUOUS
 62
    7
 10
52400.769
 20
103177.82
 11
52100.268
 21
103177.82
  0
LINE
  8
0-0
  6
CONTINUOUS
 62
    7
 10
52070.269
 20
103177.82
 11
51687.969
 21
103177.82
  0
LINE
  8
0-0
  6
CONTINUOUS
 62
    7
 10
51687.969
 20
103177.82
 11
51287.968
 21
103177.82
  0
LINE
  8
0-0
  6
CONTINUOUS
 62
    7
 10
50270.268
 20
102797.82
 11
50270.268
 21
102697.82
  0
LINE
  8
0-0
  6
CONTINUOUS
 62
    7
 10
50724.27
 20
102132.82
 11
50724.27
 21
102347.82
  0
LINE
  8
0-0
  6
CONTINUOUS
 62
    7
 10
50700.838
 20
102347.82
 11
50700.838
 21
102132.82
  0
LINE
  8
0-0
  6
CONTINUOUS
 62
    7
 10
50689.851
 20
102132.82
 11
50689.851
 21
102347.82
  0
LINE
  8
0-0
  6
CONTINUOUS
 62
    7
 10
50679.132
 20
102347.82
 11
50679.132
 21
102132.82
  0
LINE
  8
0-0
  6
CONTINUOUS
 62
    7
 10
52182.626
 20
103334.58
 11
52182.626
 21
103634.59
  0
LINE
  8
0-0
  6
CONTINUOUS
 62
    7
 10
52020.439
 20
103334.58
 11
52020.439
 21
103297.82
  0
LINE
  8
0-0
  6
CONTINUOUS
 62
    7
 10
51898.793
 20
103334.58
 11
51898.793
 21
103297.82
  0
LINE
  8
0-0
  6
CONTINUOUS
 62
    7
 10
51323.075
 20
103654.57
 11
51583.074
 21
103654.57
  0
LINE
  8
0-0
  6
CONTINUOUS
 62
    7
 10
51323.075
 20
103654.57
 11
51340.182
 21
103689.58
  0
LINE
  8
0-0
  6
CONTINUOUS
 62
    7
 10
51565.971
 20
103689.58
 11
51583.074
 21
103654.57
  0
LINE
  8
0-0
  6
CONTINUOUS
 62
    7
 10
51340.108
 20
103689.58
 11
51565.971
 21
103689.58
  0
LINE
  8
0-0
  6
CONTINUOUS
 62
    7
 10
51383.009
 20
103634.59
 11
51383.009
 21
103654.57
  0
LINE
  8
0-0
  6
CONTINUOUS
 62
    7
 10
51322.629
 20
103634.59
 11
51411.039
 21
103634.59
  0
LINE
  8
0-0
  6
CONTINUOUS
 62
    7
 10
51547.275
 20
103634.59
 11
52182.626
 21
103634.59
  0
LINE
  8
0-0
  6
CONTINUOUS
 62
    7
 10
51322.629
 20
103334.58
 11
51322.629
 21
103426.64
  0
LINE
  8
0-0
  6
CONTINUOUS
 62
    7
 10
51322.629
 20
103539.07
 11
51322.629
 21
103634.59
  0
LINE
  8
0-0
  6
CONTINUOUS
 62
    7
 10
51322.629
 20
103334.58
 11
51403.809
 21
103334.58
  0
LINE
  8
0-0
  6
CONTINUOUS
 62
    7
 10
51554.505
 20
103334.58
 11
52182.626
 21
103334.58
  0
LINE
  8
0-0
  6
CONTINUOUS
 62
    7
 10
51523.144
 20
103642.48
 11
51523.144
 21
103654.57
  0
LINE
  8
0-0
  6
CONTINUOUS
 62
    7
 10
54074.397
 20
103314.49
 11
54074.397
 21
103737.82
  0
LINE
  8
0-0
  6
CONTINUOUS
 62
    7
 10
54299.389
 20
103247.82
 11
53793.182
 21
103397.82
  0
LINE
  8
0-0
  6
CONTINUOUS
 62
    7
 10
54309.401
 20
101695.98
 11
54309.401
 21
101425.8
  0
LINE
  8
0-0
  6
CONTINUOUS
 62
    7
 10
53540.818
 20
103397.82
 11
53540.818
 21
103536.38
  0
LINE
  8
0-0
  6
CONTINUOUS
 62
    7
 10
54649.398
 20
101767.82
 11
54649.398
 21
101807.82
  0
LINE
  8
0-0
  6
CONTINUOUS
 62
    7
 10
54609.397
 20
101767.82
 11
54609.397
 21
101807.82
  0
LINE
  8
0-0
  6
CONTINUOUS
 62
    7
 10
53619.4
 20
101767.82
 11
53619.4
 21
101807.82
  0
LINE
  8
0-0
  6
CONTINUOUS
 62
    7
 10
53969.399
 20
101767.82
 11
53969.399
 21
101807.82
  0
LINE
  8
0-0
  6
CONTINUOUS
 62
    7
 10
54009.4
 20
101767.82
 11
54009.4
 21
101807.82
  0
LINE
  8
0-0
  6
CONTINUOUS
 62
    7
 10
53570.273
 20
101767.82
 11
53570.273
 21
101807.82
  0
LINE
  8
0-0
  6
CONTINUOUS
 62
    7
 10
53570.273
 20
101647.82
 11
53570.273
 21
101767.82
  0
LINE
  8
0-0
  6
CONTINUOUS
 62
    7
 10
52604.125
 20
103098.39
 11
53418.182
 21
102347.82
  0
LINE
  8
0-0
  6
CONTINUOUS
 62
    7
 10
53106.532
 20
103661.74
 11
53202.217
 21
103547.83
  0
LINE
  8
0-0
  6
CONTINUOUS
 62
    7
 10
52991.675
 20
103565.26
 11
53080.521
 21
103459.49
  0
LINE
  8
0-0
  6
CONTINUOUS
 62
    7
 10
53003.305
 20
103551.42
 11
53118.161
 21
103647.89
  0
LINE
  8
0-0
  6
CONTINUOUS
 62
    7
 10
52991.675
 20
103565.26
 11
53106.532
 21
103661.74
  0
LINE
  8
0-0
  6
CONTINUOUS
 62
    7
 10
53140.936
 20
103532.51
 11
53447.637
 21
103609.15
  0
LINE
  8
0-0
  6
CONTINUOUS
 62
    7
 10
53040.821
 20
103397.82
 11
53116.053
 21
103514.68
  0
LINE
  8
0-0
  6
CONTINUOUS
 62
    7
 10
52393.182
 20
103247.82
 11
52823.183
 21
103397.82
  0
LINE
  8
0-0
  6
CONTINUOUS
 62
    7
 10
53030.271
 20
102250.83
 11
53030.271
 21
103177.82
  0
LINE
  8
0-0
  6
CONTINUOUS
 62
    7
 10
52823.183
 20
103397.82
 11
53793.182
 21
103397.82
  0
LINE
  8
0-0
  6
CONTINUOUS
 62
    7
 10
54030.309
 20
102250.83
 11
54030.309
 21
103177.82
  0
LINE
  8
0-0
  6
CONTINUOUS
 62
    7
 10
53983.102
 20
102250.83
 11
53983.102
 21
103177.82
  0
LINE
  8
0-0
  6
CONTINUOUS
 62
    7
 10
54686.573
 20
103177.82
 11
52100.268
 21
103177.82
  0
LINE
  8
0-0
  6
CONTINUOUS
 62
    7
 10
54569.792
 20
103595.43
 11
54278.293
 21
103595.43
  0
LINE
  8
0-0
  6
CONTINUOUS
 62
    7
 10
54228.295
 20
103418.15
 11
54228.295
 21
103545.44
  0
LINE
  8
0-0
  6
CONTINUOUS
 62
    7
 10
54569.792
 20
103368.15
 11
54278.293
 21
103368.15
  0
LINE
  8
0-0
  6
CONTINUOUS
 62
    7
 10
54619.789
 20
103545.44
 11
54619.789
 21
103418.15
  0
LINE
  8
0-0
  6
CONTINUOUS
 62
    7
 10
54253.291
 20
103545.44
 11
54253.291
 21
103418.15
  0
LINE
  8
0-0
  6
CONTINUOUS
 62
    7
 10
54569.792
 20
103570.43
 11
54278.293
 21
103570.43
  0
LINE
  8
0-0
  6
CONTINUOUS
 62
    7
 10
54594.788
 20
103418.15
 11
54594.788
 21
103545.44
  0
LINE
  8
0-0
  6
CONTINUOUS
 62
    7
 10
54569.792
 20
103393.16
 11
54278.293
 21
103393.16
  0
LINE
  8
0-0
  6
CONTINUOUS
 62
    7
 10
51175.511
 20
105914.42
 11
51105.323
 21
106105.8
  0
LINE
  8
0-0
  6
CONTINUOUS
 62
    7
 10
51158.002
 20
105858.42
 11
50991.312
 21
105741.09
  0
LINE
  8
0-0
  6
CONTINUOUS
 62
    7
 10
51055.27
 20
104586
 11
51205.268
 21
104586
  0
LINE
  8
0-0
  6
CONTINUOUS
 62
    7
 10
51055.27
 20
104737.9
 11
51205.268
 21
104737.9
  0
LINE
  8
0-0
  6
CONTINUOUS
 62
    7
 10
51055.27
 20
104586
 11
51055.27
 21
104737.9
  0
LINE
  8
0-0
  6
CONTINUOUS
 62
    7
 10
51205.268
 20
104586
 11
51205.268
 21
104737.9
  0
LINE
  8
0-0
  6
CONTINUOUS
 62
    7
 10
51065.267
 20
104737.9
 11
51065.267
 21
105729.97
  0
LINE
  8
0-0
  6
CONTINUOUS
 62
    7
 10
51195.272
 20
104737.9
 11
51195.272
 21
105729.97
  0
LINE
  8
0-0
  6
CONTINUOUS
 62
    7
 10
51104.333
 20
105643.22
 11
51104.333
 21
105678.8
  0
LINE
  8
0-0
  6
CONTINUOUS
 62
    7
 10
51104.333
 20
105678.8
 11
51155.404
 21
105678.8
  0
LINE
  8
0-0
  6
CONTINUOUS
 62
    7
 10
51155.404
 20
105678.8
 11
51155.404
 21
105643.22
  0
LINE
  8
0-0
  6
CONTINUOUS
 62
    7
 10
51155.404
 20
105643.22
 11
51104.333
 21
105643.22
  0
LINE
  8
0-0
  6
CONTINUOUS
 62
    7
 10
51220.14
 20
105674.22
 11
51334.996
 21
105770.71
  0
LINE
  8
0-0
  6
CONTINUOUS
 62
    7
 10
51292.946
 20
105820.77
 11
51334.996
 21
105770.71
  0
LINE
  8
0-0
  6
CONTINUOUS
 62
    7
 10
51195.272
 20
105703.84
 11
51220.14
 21
105674.22
  0
LINE
  8
0-0
  6
CONTINUOUS
 62
    7
 10
51208.51
 20
105688.07
 11
51323.366
 21
105784.55
  0
LINE
  8
0-0
  6
CONTINUOUS
 62
    7
 10
58830.7
 20
102584.61
 11
60684.257
 21
104113.05
  0
LINE
  8
0-0
  6
CONTINUOUS
 62
    7
 10
58736.728
 20
102678.6
 11
60265.153
 21
104532.14
  0
LINE
  8
0-0
  6
CONTINUOUS
 62
    7
 10
60673.112
 20
104156.87
 11
60401.334
 21
104209.67
  0
LINE
  8
0-0
  6
CONTINUOUS
 62
    7
 10
60308.99
 20
104521
 11
60361.774
 21
104249.22
  0
LINE
  8
0-0
  6
CONTINUOUS
 62
    7
 10
58660.165
 20
102508.04
 11
58801.587
 21
102649.47
  0
LINE
  8
0-0
  6
CONTINUOUS
 62
    7
 10
58800.597
 20
102506.63
 11
58658.749
 21
102648.47
  0
LINE
  8
0-0
  6
CONTINUOUS
 62
    7
 10
63386.468
 20
106443.81
 11
63419.264
 21
106476.61
  0
LINE
  8
0-0
  6
CONTINUOUS
 62
    7
 10
62595.918
 20
107234.35
 11
62628.713
 21
107267.15
  0
LINE
  8
0-0
  6
CONTINUOUS
 62
    7
 10
62537.943
 20
107292.33
 11
62570.733
 21
107325.14
  0
LINE
  8
0-0
  6
CONTINUOUS
 62
    7
 10
63386.468
 20
106443.81
 11
62595.918
 21
107234.35
  0
LINE
  8
0-0
  6
CONTINUOUS
 62
    7
 10
63201.022
 20
106291.14
 11
63213.904
 21
106559.8
  0
LINE
  8
0-0
  6
CONTINUOUS
 62
    7
 10
62567.63
 20
107206.06
 11
63355.33
 21
106418.37
  0
LINE
  8
0-0
  6
CONTINUOUS
 62
    7
 10
62443.242
 20
107048.92
 11
62711.908
 21
107061.8
  0
LINE
  8
0-0
  6
CONTINUOUS
 62
    7
 10
63044.224
 20
106892.12
 11
63214.819
 21
106721.52
  0
LINE
  8
0-0
  6
CONTINUOUS
 62
    7
 10
63044.224
 20
106892.12
 11
62872.451
 21
107063.89
  0
LINE
  8
0-0
  6
CONTINUOUS
 62
    7
 10
62875.747
 20
106723.65
 11
63044.224
 21
106892.12
  0
LINE
  8
0-0
  6
CONTINUOUS
 62
    7
 10
63444.448
 20
106385.83
 11
63477.244
 21
106418.63
  0
LINE
  8
0-0
  6
CONTINUOUS
 62
    7
 10
63044.224
 20
106892.12
 11
63214.819
 21
106721.52
  0
LINE
  8
0-0
  6
CONTINUOUS
 62
    7
 10
63044.224
 20
106892.12
 11
62872.451
 21
107063.89
  0
LINE
  8
0-0
  6
CONTINUOUS
 62
    7
 10
62744.886
 20
105908.16
 11
62547.479
 21
106307
  0
LINE
  8
0-0
  6
CONTINUOUS
 62
    7
 10
62713.308
 20
105881.8
 11
62488.361
 21
106336.25
  0
LINE
  8
0-0
  6
CONTINUOUS
 62
    7
 10
62488.361
 20
106336.25
 11
62971.304
 21
106097.2
  0
LINE
  8
0-0
  6
CONTINUOUS
 62
    7
 10
62459.098
 20
106395.36
 11
63004.871
 21
106125.23
  0
LINE
  8
0-0
  6
CONTINUOUS
 62
    7
 10
63044.081
 20
106157.96
 11
62599.377
 21
107056.4
  0
LINE
  8
0-0
  6
CONTINUOUS
 62
    7
 10
63012.497
 20
106131.59
 11
62555.778
 21
107054.31
  0
LINE
  8
0-0
  6
CONTINUOUS
 62
    7
 10
62459.098
 20
106395.36
 11
62249.304
 21
106819.21
  0
LINE
  8
0-0
  6
CONTINUOUS
 62
    7
 10
62518.212
 20
106366.11
 11
62277.334
 21
106852.77
  0
LINE
  8
0-0
  6
CONTINUOUS
 62
    7
 10
62310.06
 20
106891.97
 11
63208.509
 21
106447.27
  0
LINE
  8
0-0
  6
CONTINUOUS
 62
    7
 10
62283.698
 20
106860.4
 11
63206.411
 21
106403.68
  0
LINE
  8
0-0
  6
CONTINUOUS
 62
    7
 10
62060.26
 20
106592.78
 11
62459.098
 21
106395.36
  0
LINE
  8
0-0
  6
CONTINUOUS
 62
    7
 10
62033.893
 20
106561.2
 11
62488.361
 21
106336.25
  0
LINE
  8
0-0
  6
CONTINUOUS
 62
    7
 10
61997.237
 20
106517.29
 11
62530.658
 21
105729.29
  0
LINE
  8
0-0
  6
CONTINUOUS
 62
    7
 10
62499.961
 20
105703.67
 11
61971.617
 21
106486.61
  0
LINE
  8
0-0
  6
CONTINUOUS
 62
    7
 10
61629.353
 20
106076.67
 11
62456.396
 21
105667.3
  0
LINE
  8
0-0
  6
CONTINUOUS
 62
    7
 10
61602.986
 20
106045.09
 11
62422.838
 21
105639.29
  0
LINE
  8
0-0
  6
CONTINUOUS
 62
    7
 10
61941.964
 20
105237.8
 11
61564.93
 21
105999.51
  0
LINE
  8
0-0
  6
CONTINUOUS
 62
    7
 10
61910.381
 20
105211.43
 11
61536.91
 21
105965.95
  0
LINE
  8
0-0
  6
CONTINUOUS
 62
    7
 10
61165.498
 20
105521.09
 11
61865.995
 21
105174.37
  0
LINE
  8
0-0
  6
CONTINUOUS
 62
    7
 10
61139.136
 20
105489.52
 11
61832.432
 21
105146.35
  0
LINE
  8
0-0
  6
CONTINUOUS
 62
    7
 10
61421.331
 20
104803.12
 11
61102.999
 21
105446.23
  0
LINE
  8
0-0
  6
CONTINUOUS
 62
    7
 10
61389.757
 20
104776.75
 11
61074.984
 21
105412.68
  0
LINE
  8
0-0
  6
CONTINUOUS
 62
    7
 10
60731.795
 20
105001.63
 11
61313.962
 21
104713.47
  0
LINE
  8
0-0
  6
CONTINUOUS
 62
    7
 10
60758.167
 20
105033.22
 11
61347.529
 21
104741.5
  0
LINE
  8
0-0
  6
CONTINUOUS
 62
    7
 10
60932.301
 20
104394.82
 11
60696.352
 21
104959.17
  0
LINE
  8
0-0
  6
CONTINUOUS
 62
    7
 10
60903.87
 20
104371.08
 11
60670.801
 21
104928.57
  0
LINE
  8
0-0
  6
CONTINUOUS
 62
    7
 10
60353.306
 20
104548.3
 11
60861.607
 21
104335.79
  0
LINE
  8
0-0
  6
CONTINUOUS
 62
    7
 10
60329.577
 20
104519.88
 11
60830.999
 21
104310.25
  0
LINE
  8
0-0
  6
CONTINUOUS
 62
    7
 10
62537.943
 20
107292.33
 11
58701.908
 21
102697.78
  0
LINE
  8
0-0
  6
CONTINUOUS
 62
    7
 10
63444.438
 20
106385.84
 11
58849.912
 21
102549.83
  0
LINE
  8
0-0
  6
CONTINUOUS
 62
    7
 10
60652.179
 20
104160.94
 11
63386.458
 21
106443.81
  0
LINE
  8
0-0
  6
CONTINUOUS
 62
    7
 10
60313.053
 20
104500.08
 11
62595.918
 21
107234.35
  0
LINE
  8
0-0
  6
CONTINUOUS
 62
    7
 10
63044.224
 20
106892.12
 11
63214.819
 21
106721.52
  0
LINE
  8
0-0
  6
CONTINUOUS
 62
    7
 10
63044.224
 20
106892.12
 11
62872.451
 21
107063.89
  0
LINE
  8
0-0
  6
CONTINUOUS
 62
    7
 10
62875.747
 20
106723.65
 11
63044.224
 21
106892.12
  0
LINE
  8
0-0
  6
CONTINUOUS
 62
    7
 10
63016.649
 20
107655.09
 11
64061.751
 21
107119.09
  0
LINE
  8
0-0
  6
CONTINUOUS
 62
    7
 10
63517.715
 20
106459.09
 11
65564.161
 21
108505.55
  0
LINE
  8
0-0
  6
CONTINUOUS
 62
    7
 10
63459.735
 20
106517.08
 11
65508.24
 21
108565.6
  0
LINE
  8
0-0
  6
CONTINUOUS
 62
    7
 10
62669.185
 20
107307.62
 11
64736.242
 21
109374.7
  0
LINE
  8
0-0
  6
CONTINUOUS
 62
    7
 10
62611.204
 20
107365.6
 11
64655.592
 21
109410
  0
LINE
  8
0-0
  6
CONTINUOUS
 62
    7
 10
62701.99
 20
107340.42
 11
62669.185
 21
107307.62
  0
LINE
  8
0-0
  6
CONTINUOUS
 62
    7
 10
62644.005
 20
107398.39
 11
62611.204
 21
107365.6
  0
LINE
  8
0-0
  6
CONTINUOUS
 62
    7
 10
63492.526
 20
106549.87
 11
62701.99
 21
107340.42
  0
LINE
  8
0-0
  6
CONTINUOUS
 62
    7
 10
63550.511
 20
106491.89
 11
63517.715
 21
106459.09
  0
LINE
  8
0-0
  6
CONTINUOUS
 62
    7
 10
62730.268
 20
107368.7
 11
63520.808
 21
106578.16
  0
LINE
  8
0-0
  6
CONTINUOUS
 62
    7
 10
63379.391
 20
106719.59
 11
63662.235
 21
106719.58
  0
LINE
  8
0-0
  6
CONTINUOUS
 62
    7
 10
62871.694
 20
107510.13
 11
62871.684
 21
107227.29
  0
LINE
  8
0-0
  6
CONTINUOUS
 62
    7
 10
63497.702
 20
106719.58
 11
62926.943
 21
107565.38
  0
LINE
  8
0-0
  6
CONTINUOUS
 62
    7
 10
63545.804
 20
106719.59
 11
62954.567
 21
107593
  0
LINE
  8
0-0
  6
CONTINUOUS
 62
    7
 10
64033.459
 20
107090.82
 11
62988.367
 21
107626.8
  0
LINE
  8
0-0
  6
CONTINUOUS
 62
    7
 10
64090.038
 20
107147.38
 11
63539.901
 21
108178.34
  0
LINE
  8
0-0
  6
CONTINUOUS
 62
    7
 10
63568.188
 20
108206.63
 11
64118.321
 21
107175.67
  0
LINE
  8
0-0
  6
CONTINUOUS
 62
    7
 10
65507.775
 20
108565.14
 11
65540.58
 21
108597.93
  0
LINE
  8
0-0
  6
CONTINUOUS
 62
    7
 10
64717.239
 20
109355.67
 11
64750.03
 21
109388.47
  0
LINE
  8
0-0
  6
CONTINUOUS
 62
    7
 10
64659.254
 20
109413.65
 11
64692.05
 21
109446.46
  0
LINE
  8
0-0
  6
CONTINUOUS
 62
    7
 10
65565.76
 20
108507.15
 11
65598.565
 21
108539.95
  0
LINE
  8
0-0
  6
CONTINUOUS
 62
    7
 10
64717.239
 20
109355.67
 11
65507.775
 21
108565.14
  0
LINE
  8
0-0
  6
CONTINUOUS
 62
    7
 10
64688.947
 20
109327.4
 11
65479.497
 21
108536.86
  0
LINE
  8
0-0
  6
CONTINUOUS
 62
    7
 10
65338.075
 20
108395.43
 11
65338.07
 21
108678.27
  0
LINE
  8
0-0
  6
CONTINUOUS
 62
    7
 10
64547.525
 20
109185.97
 11
64830.368
 21
109185.96
  0
LINE
  8
0-0
  6
CONTINUOUS
 62
    7
 10
65193.12
 20
108250.47
 11
64148.019
 21
108786.45
  0
LINE
  8
0-0
  6
CONTINUOUS
 62
    7
 10
64176.301
 20
108814.74
 11
65221.403
 21
108278.76
  0
LINE
  8
0-0
  6
CONTINUOUS
 62
    7
 10
64119.731
 20
108758.18
 11
64669.864
 21
107727.21
  0
LINE
  8
0-0
  6
CONTINUOUS
 62
    7
 10
64641.577
 20
107698.93
 11
64091.449
 21
108729.89
  0
LINE
  8
0-0
  6
CONTINUOUS
 62
    7
 10
64712.067
 20
109185.98
 11
65282.832
 21
108340.18
  0
LINE
  8
0-0
  6
CONTINUOUS
 62
    7
 10
64663.965
 20
109185.97
 11
65255.198
 21
108312.56
  0
LINE
  8
0-0
  6
CONTINUOUS
 62
    7
 10
64585.012
 20
107642.36
 11
63596.475
 21
108234.91
  0
LINE
  8
0-0
  6
CONTINUOUS
 62
    7
 10
63624.758
 20
108263.2
 11
64613.294
 21
107670.64
  0
LINE
  8
0-0
  6
CONTINUOUS
 62
    7
 10
63044.224
 20
106892.12
 11
63214.819
 21
106721.52
  0
LINE
  8
0-0
  6
CONTINUOUS
 62
    7
 10
63044.224
 20
106892.12
 11
62872.451
 21
107063.89
  0
LINE
  8
0-0
  6
CONTINUOUS
 62
    7
 10
65165.541
 20
109013.43
 11
65336.13
 21
108842.85
  0
LINE
  8
0-0
  6
CONTINUOUS
 62
    7
 10
65165.541
 20
109013.43
 11
64993.778
 21
109185.21
  0
LINE
  8
0-0
  6
CONTINUOUS
 62
    7
 10
65112.514
 20
108960.41
 11
65283.099
 21
108789.82
  0
LINE
  8
0-0
  6
CONTINUOUS
 62
    7
 10
65112.514
 20
108960.41
 11
64940.741
 21
109132.18
  0
LINE
  8
0-0
  6
CONTINUOUS
 62
    7
 10
65165.541
 20
109013.43
 11
65336.13
 21
108842.85
  0
LINE
  8
0-0
  6
CONTINUOUS
 62
    7
 10
65165.541
 20
109013.43
 11
64993.778
 21
109185.21
  0
LINE
  8
0-0
  6
CONTINUOUS
 62
    7
 10
65581.051
 20
108638.39
 11
69750.422
 21
112807.79
  0
LINE
  8
0-0
  6
CONTINUOUS
 62
    7
 10
65639.031
 20
108580.42
 11
69808.402
 21
112749.8
  0
LINE
  8
0-0
  6
CONTINUOUS
 62
    7
 10
64790.501
 20
109428.95
 11
68959.872
 21
113598.33
  0
LINE
  8
0-0
  6
CONTINUOUS
 62
    7
 10
64732.521
 20
109486.94
 11
68901.882
 21
113656.31
  0
LINE
  8
0-0
  6
CONTINUOUS
 62
    7
 10
65137.961
 20
109776.41
 11
66183.067
 21
109240.43
  0
LINE
  8
0-0
  6
CONTINUOUS
 62
    7
 10
64823.302
 20
109461.75
 11
64790.501
 21
109428.95
  0
LINE
  8
0-0
  6
CONTINUOUS
 62
    7
 10
64765.321
 20
109519.73
 11
64732.521
 21
109486.94
  0
LINE
  8
0-0
  6
CONTINUOUS
 62
    7
 10
65613.852
 20
108671.2
 11
64823.302
 21
109461.75
  0
LINE
  8
0-0
  6
CONTINUOUS
 62
    7
 10
65671.832
 20
108613.22
 11
65639.031
 21
108580.42
  0
LINE
  8
0-0
  6
CONTINUOUS
 62
    7
 10
64851.579
 20
109490.02
 11
65642.134
 21
108699.49
  0
LINE
  8
0-0
  6
CONTINUOUS
 62
    7
 10
65500.708
 20
108840.91
 11
65783.551
 21
108840.91
  0
LINE
  8
0-0
  6
CONTINUOUS
 62
    7
 10
64993.001
 20
109631.45
 11
64993.006
 21
109348.61
  0
LINE
  8
0-0
  6
CONTINUOUS
 62
    7
 10
65619.014
 20
108840.91
 11
65048.254
 21
109686.69
  0
LINE
  8
0-0
  6
CONTINUOUS
 62
    7
 10
65667.116
 20
108840.9
 11
65075.883
 21
109714.33
  0
LINE
  8
0-0
  6
CONTINUOUS
 62
    7
 10
66154.78
 20
109212.14
 11
65109.679
 21
109748.12
  0
LINE
  8
0-0
  6
CONTINUOUS
 62
    7
 10
69750.422
 20
112807.79
 11
69783.213
 21
112840.58
  0
LINE
  8
0-0
  6
CONTINUOUS
 62
    7
 10
68959.872
 20
113598.33
 11
68992.667
 21
113631.13
  0
LINE
  8
0-0
  6
CONTINUOUS
 62
    7
 10
68901.882
 20
113656.31
 11
68934.682
 21
113689.1
  0
LINE
  8
0-0
  6
CONTINUOUS
 62
    7
 10
69808.402
 20
112749.8
 11
69841.188
 21
112782.6
  0
LINE
  8
0-0
  6
CONTINUOUS
 62
    7
 10
68959.872
 20
113598.33
 11
69750.422
 21
112807.79
  0
LINE
  8
0-0
  6
CONTINUOUS
 62
    7
 10
68931.589
 20
113570.05
 11
69722.13
 21
112779.5
  0
LINE
  8
0-0
  6
CONTINUOUS
 62
    7
 10
69580.708
 20
112638.08
 11
69580.708
 21
112920.92
  0
LINE
  8
0-0
  6
CONTINUOUS
 62
    7
 10
68790.163
 20
113428.62
 11
69073.006
 21
113428.61
  0
LINE
  8
0-0
  6
CONTINUOUS
 62
    7
 10
69580.713
 20
112802.61
 11
68734.914
 21
113373.37
  0
LINE
  8
0-0
  6
CONTINUOUS
 62
    7
 10
69580.713
 20
112754.51
 11
68707.285
 21
113345.74
  0
LINE
  8
0-0
  6
CONTINUOUS
 62
    7
 10
66183.067
 20
109240.43
 11
65392.517
 21
110030.97
  0
LINE
  8
0-0
  6
CONTINUOUS
 62
    7
 10
65420.809
 20
110059.25
 11
66211.35
 21
109268.7
  0
LINE
  8
0-0
  6
CONTINUOUS
 62
    7
 10
66211.35
 20
109268.7
 11
65661.227
 21
110299.68
  0
LINE
  8
0-0
  6
CONTINUOUS
 62
    7
 10
65689.499
 20
110327.95
 11
66239.637
 21
109296.99
  0
LINE
  8
0-0
  6
CONTINUOUS
 62
    7
 10
65717.796
 20
110356.24
 11
66748.754
 21
109806.1
  0
LINE
  8
0-0
  6
CONTINUOUS
 62
    7
 10
66777.037
 20
109834.39
 11
65746.074
 21
110384.52
  0
LINE
  8
0-0
  6
CONTINUOUS
 62
    7
 10
66805.314
 20
109862.68
 11
66255.191
 21
110893.63
  0
LINE
  8
0-0
  6
CONTINUOUS
 62
    7
 10
66283.469
 20
110921.92
 11
66833.602
 21
109890.96
  0
LINE
  8
0-0
  6
CONTINUOUS
 62
    7
 10
66311.761
 20
110950.21
 11
67342.719
 21
110400.08
  0
LINE
  8
0-0
  6
CONTINUOUS
 62
    7
 10
67371.001
 20
110428.36
 11
66340.038
 21
110978.49
  0
LINE
  8
0-0
  6
CONTINUOUS
 62
    7
 10
67399.289
 20
110456.64
 11
66849.161
 21
111487.61
  0
LINE
  8
0-0
  6
CONTINUOUS
 62
    7
 10
66877.438
 20
111515.88
 11
67427.576
 21
110484.93
  0
LINE
  8
0-0
  6
CONTINUOUS
 62
    7
 10
67667.988
 20
110725.34
 11
66877.438
 21
111515.88
  0
LINE
  8
0-0
  6
CONTINUOUS
 62
    7
 10
68645.212
 20
113283.66
 11
69181.192
 21
112238.57
  0
LINE
  8
0-0
  6
CONTINUOUS
 62
    7
 10
69209.479
 20
112266.84
 11
68673.49
 21
113311.95
  0
LINE
  8
0-0
  6
CONTINUOUS
 62
    7
 10
69181.192
 20
112238.57
 11
68390.651
 21
113029.11
  0
LINE
  8
0-0
  6
CONTINUOUS
 62
    7
 10
68362.364
 20
113000.82
 11
69152.904
 21
112210.28
  0
LINE
  8
0-0
  6
CONTINUOUS
 62
    7
 10
69152.904
 20
112210.28
 11
68121.951
 21
112760.41
  0
LINE
  8
0-0
  6
CONTINUOUS
 62
    7
 10
68093.664
 20
112732.12
 11
69124.627
 21
112181.99
  0
LINE
  8
0-0
  6
CONTINUOUS
 62
    7
 10
68065.377
 20
112703.84
 11
68615.515
 21
111672.88
  0
LINE
  8
0-0
  6
CONTINUOUS
 62
    7
 10
68587.222
 20
111644.59
 11
68037.094
 21
112675.55
  0
LINE
  8
0-0
  6
CONTINUOUS
 62
    7
 10
68558.935
 20
111616.3
 11
67527.977
 21
112166.43
  0
LINE
  8
0-0
  6
CONTINUOUS
 62
    7
 10
67499.7
 20
112138.14
 11
68530.658
 21
111588.03
  0
LINE
  8
0-0
  6
CONTINUOUS
 62
    7
 10
67471.417
 20
112109.87
 11
68021.545
 21
111078.91
  0
LINE
  8
0-0
  6
CONTINUOUS
 62
    7
 10
67993.258
 20
111050.62
 11
67443.13
 21
112081.59
  0
LINE
  8
0-0
  6
CONTINUOUS
 62
    7
 10
67964.976
 20
111022.33
 11
66934.013
 21
111572.46
  0
LINE
  8
0-0
  6
CONTINUOUS
 62
    7
 10
66905.73
 20
111544.18
 11
67936.693
 21
110994.05
  0
LINE
  8
0-0
  6
CONTINUOUS
 62
    7
 10
67696.271
 20
110753.63
 11
66905.73
 21
111544.18
  0
LINE
  8
0-0
  6
CONTINUOUS
 62
    7
 10
65165.541
 20
109013.43
 11
65336.13
 21
108842.85
  0
LINE
  8
0-0
  6
CONTINUOUS
 62
    7
 10
65165.541
 20
109013.43
 11
64993.778
 21
109185.21
  0
LINE
  8
0-0
  6
CONTINUOUS
 62
    7
 10
65165.541
 20
109013.43
 11
65336.13
 21
108842.85
  0
LINE
  8
0-0
  6
CONTINUOUS
 62
    7
 10
65165.541
 20
109013.43
 11
64993.778
 21
109185.21
  0
LINE
  8
0-0
  6
CONTINUOUS
 62
    7
 10
69523.614
 20
113371.53
 11
69355.137
 21
113203.06
  0
LINE
  8
0-0
  6
CONTINUOUS
 62
    7
 10
69408.168
 20
113256.09
 11
69578.768
 21
113085.49
  0
LINE
  8
0-0
  6
CONTINUOUS
 62
    7
 10
69408.168
 20
113256.09
 11
69236.41
 21
113427.86
  0
LINE
  8
0-0
  6
CONTINUOUS
 62
    7
 10
69408.168
 20
113256.09
 11
69578.768
 21
113085.49
  0
LINE
  8
0-0
  6
CONTINUOUS
 62
    7
 10
69408.168
 20
113256.09
 11
69236.41
 21
113427.86
  0
LINE
  8
0-0
  6
CONTINUOUS
 62
    7
 10
69823.679
 20
112881.05
 11
73993.045
 21
117050.43
  0
LINE
  8
0-0
  6
CONTINUOUS
 62
    7
 10
69881.659
 20
112823.07
 11
74051.025
 21
116992.45
  0
LINE
  8
0-0
  6
CONTINUOUS
 62
    7
 10
69033.129
 20
113671.6
 11
73202.494
 21
117840.97
  0
LINE
  8
0-0
  6
CONTINUOUS
 62
    7
 10
68975.144
 20
113729.58
 11
73144.509
 21
117898.95
  0
LINE
  8
0-0
  6
CONTINUOUS
 62
    7
 10
69380.584
 20
114019.05
 11
70425.695
 21
113483.07
  0
LINE
  8
0-0
  6
CONTINUOUS
 62
    7
 10
69065.924
 20
113704.4
 11
69033.129
 21
113671.6
  0
LINE
  8
0-0
  6
CONTINUOUS
 62
    7
 10
69007.944
 20
113762.37
 11
68975.144
 21
113729.58
  0
LINE
  8
0-0
  6
CONTINUOUS
 62
    7
 10
69856.475
 20
112913.84
 11
69065.924
 21
113704.4
  0
LINE
  8
0-0
  6
CONTINUOUS
 62
    7
 10
69914.455
 20
112855.87
 11
69881.659
 21
112823.07
  0
LINE
  8
0-0
  6
CONTINUOUS
 62
    7
 10
69094.202
 20
113732.68
 11
69884.762
 21
112942.14
  0
LINE
  8
0-0
  6
CONTINUOUS
 62
    7
 10
69743.335
 20
113083.55
 11
70026.179
 21
113083.55
  0
LINE
  8
0-0
  6
CONTINUOUS
 62
    7
 10
69235.629
 20
113874.09
 11
69235.633
 21
113591.25
  0
LINE
  8
0-0
  6
CONTINUOUS
 62
    7
 10
69861.641
 20
113083.55
 11
69290.877
 21
113929.34
  0
LINE
  8
0-0
  6
CONTINUOUS
 62
    7
 10
69909.744
 20
113083.55
 11
69318.511
 21
113956.98
  0
LINE
  8
0-0
  6
CONTINUOUS
 62
    7
 10
70397.408
 20
113454.78
 11
69352.301
 21
113990.77
  0
LINE
  8
0-0
  6
CONTINUOUS
 62
    7
 10
73993.045
 20
117050.43
 11
74025.836
 21
117083.22
  0
LINE
  8
0-0
  6
CONTINUOUS
 62
    7
 10
73202.494
 20
117840.97
 11
73235.295
 21
117873.77
  0
LINE
  8
0-0
  6
CONTINUOUS
 62
    7
 10
73144.509
 20
117898.95
 11
73177.31
 21
117931.75
  0
LINE
  8
0-0
  6
CONTINUOUS
 62
    7
 10
74051.025
 20
116992.45
 11
74083.816
 21
117025.24
  0
LINE
  8
0-0
  6
CONTINUOUS
 62
    7
 10
73202.494
 20
117840.97
 11
73993.045
 21
117050.43
  0
LINE
  8
0-0
  6
CONTINUOUS
 62
    7
 10
73174.217
 20
117812.69
 11
73964.758
 21
117022.14
  0
LINE
  8
0-0
  6
CONTINUOUS
 62
    7
 10
73823.331
 20
116880.72
 11
73823.331
 21
117163.57
  0
LINE
  8
0-0
  6
CONTINUOUS
 62
    7
 10
73032.79
 20
117671.26
 11
73315.634
 21
117671.26
  0
LINE
  8
0-0
  6
CONTINUOUS
 62
    7
 10
73823.336
 20
117045.26
 11
72977.537
 21
117616.03
  0
LINE
  8
0-0
  6
CONTINUOUS
 62
    7
 10
73823.336
 20
116997.15
 11
72949.913
 21
117588.39
  0
LINE
  8
0-0
  6
CONTINUOUS
 62
    7
 10
70425.695
 20
113483.07
 11
69635.145
 21
114273.61
  0
LINE
  8
0-0
  6
CONTINUOUS
 62
    7
 10
69663.432
 20
114301.9
 11
70453.973
 21
113511.35
  0
LINE
  8
0-0
  6
CONTINUOUS
 62
    7
 10
70453.973
 20
113511.35
 11
69903.855
 21
114542.32
  0
LINE
  8
0-0
  6
CONTINUOUS
 62
    7
 10
69932.127
 20
114570.6
 11
70482.265
 21
113539.63
  0
LINE
  8
0-0
  6
CONTINUOUS
 62
    7
 10
69960.419
 20
114598.88
 11
70991.382
 21
114048.76
  0
LINE
  8
0-0
  6
CONTINUOUS
 62
    7
 10
71019.66
 20
114077.03
 11
69988.702
 21
114627.17
  0
LINE
  8
0-0
  6
CONTINUOUS
 62
    7
 10
71047.937
 20
114105.32
 11
70497.814
 21
115136.27
  0
LINE
  8
0-0
  6
CONTINUOUS
 62
    7
 10
70526.096
 20
115164.56
 11
71076.229
 21
114133.62
  0
LINE
  8
0-0
  6
CONTINUOUS
 62
    7
 10
70554.384
 20
115192.85
 11
71585.347
 21
114642.73
  0
LINE
  8
0-0
  6
CONTINUOUS
 62
    7
 10
71613.624
 20
114671.01
 11
70582.666
 21
115221.15
  0
LINE
  8
0-0
  6
CONTINUOUS
 62
    7
 10
71641.911
 20
114699.28
 11
71091.788
 21
115730.27
  0
LINE
  8
0-0
  6
CONTINUOUS
 62
    7
 10
71120.061
 20
115758.53
 11
71670.204
 21
114727.58
  0
LINE
  8
0-0
  6
CONTINUOUS
 62
    7
 10
71910.616
 20
114967.99
 11
71120.061
 21
115758.53
  0
LINE
  8
0-0
  6
CONTINUOUS
 62
    7
 10
72887.84
 20
117526.3
 11
73423.82
 21
116481.22
  0
LINE
  8
0-0
  6
CONTINUOUS
 62
    7
 10
73452.107
 20
116509.49
 11
72916.118
 21
117554.59
  0
LINE
  8
0-0
  6
CONTINUOUS
 62
    7
 10
73423.82
 20
116481.22
 11
72633.279
 21
117271.76
  0
LINE
  8
0-0
  6
CONTINUOUS
 62
    7
 10
72604.992
 20
117243.46
 11
73395.532
 21
116452.93
  0
LINE
  8
0-0
  6
CONTINUOUS
 62
    7
 10
73395.532
 20
116452.93
 11
72364.574
 21
117003.05
  0
LINE
  8
0-0
  6
CONTINUOUS
 62
    7
 10
72336.287
 20
116974.76
 11
73367.255
 21
116424.63
  0
LINE
  8
0-0
  6
CONTINUOUS
 62
    7
 10
72308.005
 20
116946.48
 11
72858.142
 21
115915.52
  0
LINE
  8
0-0
  6
CONTINUOUS
 62
    7
 10
72829.85
 20
115887.23
 11
72279.722
 21
116918.2
  0
LINE
  8
0-0
  6
CONTINUOUS
 62
    7
 10
72801.563
 20
115858.95
 11
71770.605
 21
116409.08
  0
LINE
  8
0-0
  6
CONTINUOUS
 62
    7
 10
71742.322
 20
116380.8
 11
72773.285
 21
115830.67
  0
LINE
  8
0-0
  6
CONTINUOUS
 62
    7
 10
71714.045
 20
116352.51
 11
72264.173
 21
115321.56
  0
LINE
  8
0-0
  6
CONTINUOUS
 62
    7
 10
72235.886
 20
115293.26
 11
71685.758
 21
116324.23
  0
LINE
  8
0-0
  6
CONTINUOUS
 62
    7
 10
72207.598
 20
115264.98
 11
71176.64
 21
115815.11
  0
LINE
  8
0-0
  6
CONTINUOUS
 62
    7
 10
71148.358
 20
115786.82
 11
72179.321
 21
115236.69
  0
LINE
  8
0-0
  6
CONTINUOUS
 62
    7
 10
71938.899
 20
114996.27
 11
71148.358
 21
115786.82
  0
LINE
  8
0-0
  6
CONTINUOUS
 62
    7
 10
69408.168
 20
113256.09
 11
69578.758
 21
113085.49
  0
LINE
  8
0-0
  6
CONTINUOUS
 62
    7
 10
69408.168
 20
113256.09
 11
69236.401
 21
113427.85
  0
LINE
  8
0-0
  6
CONTINUOUS
 62
    7
 10
69408.168
 20
113256.09
 11
69578.758
 21
113085.49
  0
LINE
  8
0-0
  6
CONTINUOUS
 62
    7
 10
69408.168
 20
113256.09
 11
69236.401
 21
113427.85
  0
LINE
  8
0-0
  6
CONTINUOUS
 62
    7
 10
73766.242
 20
117614.18
 11
73597.765
 21
117445.7
  0
LINE
  8
0-0
  6
CONTINUOUS
 62
    7
 10
73650.796
 20
117498.73
 11
73821.396
 21
117328.14
  0
LINE
  8
0-0
  6
CONTINUOUS
 62
    7
 10
73650.796
 20
117498.73
 11
73479.038
 21
117670.5
  0
LINE
  8
0-0
  6
CONTINUOUS
 62
    7
 10
73650.796
 20
117498.73
 11
73821.396
 21
117328.14
  0
LINE
  8
0-0
  6
CONTINUOUS
 62
    7
 10
73650.796
 20
117498.73
 11
73479.038
 21
117670.5
  0
LINE
  8
0-0
  6
CONTINUOUS
 62
    7
 10
73250.572
 20
118005.01
 11
77849.78
 21
121926.44
  0
LINE
  8
0-0
  6
CONTINUOUS
 62
    7
 10
76789.05
 20
120248.58
 11
78049.355
 21
121726.88
  0
LINE
  8
0-0
  6
CONTINUOUS
 62
    7
 10
74157.088
 20
117098.51
 11
77561.216
 21
121091.04
  0
LINE
  8
0-0
  6
CONTINUOUS
 62
    7
 10
76400.634
 20
120637
 11
77877.899
 21
121896.41
  0
LINE
  8
0-0
  6
CONTINUOUS
 62
    7
 10
74099.107
 20
117156.49
 11
74066.307
 21
117123.7
  0
LINE
  8
0-0
  6
CONTINUOUS
 62
    7
 10
73308.567
 20
117947.03
 11
73275.766
 21
117914.23
  0
LINE
  8
0-0
  6
CONTINUOUS
 62
    7
 10
73250.572
 20
118005.01
 11
73217.781
 21
117972.23
  0
LINE
  8
0-0
  6
CONTINUOUS
 62
    7
 10
73494.003
 20
118099.71
 11
73481.122
 21
117831.05
  0
LINE
  8
0-0
  6
CONTINUOUS
 62
    7
 10
76412.808
 20
120593.29
 11
76662.97
 21
120552.12
  0
LINE
  8
0-0
  6
CONTINUOUS
 62
    7
 10
76745.353
 20
120260.74
 11
76704.193
 21
120510.9
  0
LINE
  8
0-0
  6
CONTINUOUS
 62
    7
 10
74099.107
 20
117156.49
 11
76745.392
 21
120260.5
  0
LINE
  8
0-0
  6
CONTINUOUS
 62
    7
 10
73308.567
 20
117947.03
 11
76412.576
 21
120593.34
  0
LINE
  8
0-0
  6
CONTINUOUS
 62
    7
 10
73982.87
 20
117329.3
 11
74255.41
 21
117339.82
  0
LINE
  8
0-0
  6
CONTINUOUS
 62
    7
 10
74275.631
 20
118771.51
 11
74926.309
 21
118120.84
  0
LINE
  8
0-0
  6
CONTINUOUS
 62
    7
 10
74245.102
 20
118745.48
 11
74898.016
 21
118092.55
  0
LINE
  8
0-0
  6
CONTINUOUS
 62
    7
 10
74661.697
 20
117816.4
 11
74214.662
 21
118719.54
  0
LINE
  8
0-0
  6
CONTINUOUS
 62
    7
 10
74633.459
 20
117783.28
 11
74183.277
 21
118692.77
  0
LINE
  8
0-0
  6
CONTINUOUS
 62
    7
 10
73640.696
 20
118230.19
 11
74606.79
 21
117751.99
  0
LINE
  8
0-0
  6
CONTINUOUS
 62
    7
 10
73607.563
 20
118201.95
 11
74580.041
 21
117720.6
  0
LINE
  8
0-0
  6
CONTINUOUS
 62
    7
 10
74146.017
 20
117335.6
 11
73577.128
 21
118176
  0
LINE
  8
0-0
  6
CONTINUOUS
 62
    7
 10
74099.147
 20
117333.79
 11
73547.732
 21
118150.93
  0
LINE
  8
0-0
  6
CONTINUOUS
 62
    7
 10
75156.546
 20
118396.84
 11
74306.081
 21
118797.46
  0
LINE
  8
0-0
  6
CONTINUOUS
 62
    7
 10
74341.148
 20
118827.36
 11
75184.789
 21
118429.96
  0
LINE
  8
0-0
  6
CONTINUOUS
 62
    7
 10
75211.458
 20
118461.25
 11
74876.672
 21
119283.92
  0
LINE
  8
0-0
  6
CONTINUOUS
 62
    7
 10
74909.799
 20
119312.16
 11
75238.216
 21
118492.63
  0
LINE
  8
0-0
  6
CONTINUOUS
 62
    7
 10
75786.632
 20
119135.91
 11
74966.186
 21
119368.55
  0
LINE
  8
0-0
  6
CONTINUOUS
 62
    7
 10
75760.686
 20
119105.48
 11
74940.235
 21
119338.11
  0
LINE
  8
0-0
  6
CONTINUOUS
 62
    7
 10
75287.977
 20
119634.57
 11
75786.632
 21
119135.91
  0
LINE
  8
0-0
  6
CONTINUOUS
 62
    7
 10
75318.511
 20
119660.6
 11
75812.668
 21
119166.45
  0
LINE
  8
0-0
  6
CONTINUOUS
 62
    7
 10
75812.668
 20
119166.45
 11
75603.621
 21
119903.68
  0
LINE
  8
0-0
  6
CONTINUOUS
 62
    7
 10
75841.029
 20
119199.72
 11
75634.066
 21
119929.62
  0
LINE
  8
0-0
  6
CONTINUOUS
 62
    7
 10
75666.02
 20
119956.88
 11
76326.803
 21
119769.51
  0
LINE
  8
0-0
  6
CONTINUOUS
 62
    7
 10
75699.296
 20
119985.23
 11
76352.75
 21
119799.95
  0
LINE
  8
0-0
  6
CONTINUOUS
 62
    7
 10
76431.431
 20
119892.24
 11
76267.67
 21
120469.8
  0
LINE
  8
0-0
  6
CONTINUOUS
 62
    7
 10
76459.792
 20
119925.51
 11
76298.105
 21
120495.75
  0
LINE
  8
0-0
  6
CONTINUOUS
 62
    7
 10
76578.994
 20
120565.94
 11
76718.006
 21
120426.93
  0
LINE
  8
0-0
  6
CONTINUOUS
 62
    7
 10
76511.284
 20
120577.1
 11
76729.155
 21
120359.22
  0
LINE
  8
0-0
  6
CONTINUOUS
 62
    7
 10
73336.844
 20
117975.32
 11
74124.544
 21
117187.63
  0
LINE
  8
0-0
  6
CONTINUOUS
 62
    7
 10
74099.107
 20
117156.49
 11
73308.567
 21
117947.03
  0
LINE
  8
0-0
  6
CONTINUOUS
 62
    7
 10
74157.088
 20
117098.51
 11
74124.297
 21
117065.72
  0
LINE
  8
0-0
  6
CONTINUOUS
 62
    7
 10
77902.965
 20
120767.95
 11
77664.265
 21
120880.93
  0
LINE
  8
0-0
  6
CONTINUOUS
 62
    7
 10
77934.286
 20
120804.68
 11
77784.976
 21
121022.52
  0
LINE
  8
0-0
  6
CONTINUOUS
 62
    7
 10
77529.989
 20
121117.69
 11
77926.492
 21
120779.6
  0
LINE
  8
0-0
  6
CONTINUOUS
 62
    7
 10
77752.012
 20
121599.96
 11
77610.595
 21
121458.54
  0
LINE
  8
0-0
  6
CONTINUOUS
 62
    7
 10
77312.232
 20
120799.02
 11
77651.551
 21
120808.6
  0
LINE
  8
0-0
  6
CONTINUOUS
 62
    7
 10
77673.133
 20
120822.32
 11
78095.547
 21
121656.33
  0
LINE
  8
0-0
  6
CONTINUOUS
 62
    7
 10
77652.962
 20
120891.65
 11
77562.359
 21
121059.44
  0
LINE
  8
0-0
  6
CONTINUOUS
 62
    7
 10
77772.604
 20
121031.98
 11
77592.606
 21
121094.92
  0
LINE
  8
0-0
  6
CONTINUOUS
 62
    7
 10
77820.142
 20
121956.11
 11
78090.91
 21
121685.31
  0
LINE
  8
0-0
  6
CONTINUOUS
 62
    7
 10
77515.321
 20
121853.23
 11
77793.364
 21
121961.71
  0
LINE
  8
0-0
  6
CONTINUOUS
 62
    7
 10
77062.328
 20
121255.03
 11
77447.31
 21
121800.05
  0
LINE
  8
0-0
  6
CONTINUOUS
 62
    7
 10
77134.09
 20
121356.62
 11
77098.345
 21
121426.61
  0
LINE
  8
0-0
  6
CONTINUOUS
 62
    7
 10
77139.376
 20
121499.22
 11
77239.792
 21
121506.26
  0
LINE
  8
0-0
  6
CONTINUOUS
 62
    7
 10
73766.242
 20
117614.18
 11
73597.765
 21
117445.7
  0
LINE
  8
0-0
  6
CONTINUOUS
 62
    7
 10
73650.796
 20
117498.73
 11
73821.396
 21
117328.14
  0
LINE
  8
0-0
  6
CONTINUOUS
 62
    7
 10
73650.796
 20
117498.73
 11
73479.038
 21
117670.5
  0
LINE
  8
0-0
  6
CONTINUOUS
 62
    7
 10
73650.796
 20
117498.73
 11
73821.396
 21
117328.14
  0
LINE
  8
0-0
  6
CONTINUOUS
 62
    7
 10
73650.796
 20
117498.73
 11
73479.038
 21
117670.5
  0
LINE
  8
0-0
  6
CONTINUOUS
 62
    7
 10
73819.273
 20
117667.2
 11
73650.796
 21
117498.73
  0
CIRCLE
  8
0-0
  6
CONTINUOUS
 62
    7
 10
40824.374
 20
98794.343
 40
500
  0
CIRCLE
  8
0-0
  6
CONTINUOUS
 62
    7
 10
40824.374
 20
98794.343
 40
249.03498
  0
CIRCLE
  8
0-0
  6
CONTINUOUS
 62
    7
 10
32824.38
 20
98794.343
 40
500
  0
CIRCLE
  8
0-0
  6
CONTINUOUS
 62
    7
 10
32824.38
 20
98794.343
 40
249.03498
  0
CIRCLE
  8
0-0
  6
CONTINUOUS
 62
    7
 10
36824.378
 20
98794.343
 40
500
  0
CIRCLE
  8
0-0
  6
CONTINUOUS
 62
    7
 10
36824.378
 20
98794.343
 40
249.03498
  0
CIRCLE
  8
0-0
  6
CONTINUOUS
 62
    7
 10
44824.375
 20
98794.343
 40
500
  0
CIRCLE
  8
0-0
  6
CONTINUOUS
 62
    7
 10
44824.375
 20
98794.343
 40
249.03498
  0
CIRCLE
  8
0-0
  6
CONTINUOUS
 62
    7
 10
48824.378
 20
98794.343
 40
500
  0
CIRCLE
  8
0-0
  6
CONTINUOUS
 62
    7
 10
48824.378
 20
98794.343
 40
249.03498
  0
ARC
  8
0-0
  6
CONTINUOUS
 62
    7
 10
35628.977
 20
107367.62
 40
50.442993
 50
7.5985107
 51
172.40147
  0
CIRCLE
  8
0-0
  6
CONTINUOUS
 62
    7
 10
56824.379
 20
98794.343
 40
500
  0
CIRCLE
  8
0-0
  6
CONTINUOUS
 62
    7
 10
56824.379
 20
98794.343
 40
249.03498
  0
CIRCLE
  8
0-0
  6
CONTINUOUS
 62
    7
 10
52824.376
 20
98794.343
 40
500
  0
CIRCLE
  8
0-0
  6
CONTINUOUS
 62
    7
 10
52824.376
 20
98794.343
 40
249.03498
  0
CIRCLE
  8
0-0
  6
CONTINUOUS
 62
    7
 10
53633.781
 20
100097.29
 40
29.970973
  0
CIRCLE
  8
0-0
  6
CONTINUOUS
 62
    7
 10
55168.378
 20
102368.1
 40
100
  0
CIRCLE
  8
0-0
  6
CONTINUOUS
 62
    7
 10
55166.696
 20
102367.82
 40
123.39299
  0
CIRCLE
  8
0-0
  6
CONTINUOUS
 62
    7
 10
55198.764
 20
102034.48
 40
20.014999
  0
ARC
  8
0-0
  6
CONTINUOUS
 62
    7
 10
55198.764
 20
102034.48
 40
40.344
 50
294.67153
 51
33.879684
  0
ARC
  8
0-0
  6
CONTINUOUS
 62
    7
 10
55234.93
 20
102168.93
 40
64.629988
 50
155.74009
 51
213.87968
  0
ARC
  8
0-0
  6
CONTINUOUS
 62
    7
 10
55166.696
 20
102367.82
 40
79.295997
 50
335.74009
 51
119.74404
  0
ARC
  8
0-0
  6
CONTINUOUS
 62
    7
 10
54823.952
 20
103520.44
 40
50.000003
 50
90
 51
180
  0
ARC
  8
0-0
  6
CONTINUOUS
 62
    7
 10
55410.924
 20
103520.44
 40
50.000003
 50
20.134353
 51
90
  0
ARC
  8
0-0
  6
CONTINUOUS
 62
    7
 10
54823.952
 20
103334.18
 40
50.000003
 50
180
 51
200.13435
  0
ARC
  8
0-0
  6
CONTINUOUS
 62
    7
 10
54899.169
 20
103129.01
 40
50.000003
 50
200.13435
 51
270
  0
ARC
  8
0-0
  6
CONTINUOUS
 62
    7
 10
55554.429
 20
103129.01
 40
50.000003
 50
270
 51
20.134353
  0
ARC
  8
0-0
  6
CONTINUOUS
 62
    7
 10
55554.429
 20
103129.01
 40
74.999997
 50
270
 51
20.134353
  0
ARC
  8
0-0
  6
CONTINUOUS
 62
    7
 10
54899.169
 20
103129.01
 40
74.999997
 50
200.13435
 51
270
  0
ARC
  8
0-0
  6
CONTINUOUS
 62
    7
 10
54823.952
 20
103334.18
 40
74.999997
 50
180
 51
200.13435
  0
ARC
  8
0-0
  6
CONTINUOUS
 62
    7
 10
54823.952
 20
103520.44
 40
74.999997
 50
90
 51
180
  0
ARC
  8
0-0
  6
CONTINUOUS
 62
    7
 10
55410.924
 20
103520.44
 40
74.999997
 50
20.134353
 51
90
  0
ARC
  8
0-0
  6
CONTINUOUS
 62
    7
 10
55663.495
 20
102831.53
 40
74.999997
 50
334.63627
 51
20.134353
  0
ARC
  8
0-0
  6
CONTINUOUS
 62
    7
 10
55651.841
 20
102935.93
 40
50.000003
 50
20.134353
 51
90
  0
ARC
  8
0-0
  6
CONTINUOUS
 62
    7
 10
55488.313
 20
102935.93
 40
50.000003
 50
90
 51
180
  0
ARC
  8
0-0
  6
CONTINUOUS
 62
    7
 10
55488.313
 20
102714.24
 40
50.000003
 50
180
 51
270
  0
ARC
  8
0-0
  6
CONTINUOUS
 62
    7
 10
55635.564
 20
102714.24
 40
50.000003
 50
270
 51
334.63627
  0
ARC
  8
0-0
  6
CONTINUOUS
 62
    7
 10
55651.841
 20
102935.93
 40
25.000001
 50
20.134353
 51
90
  0
ARC
  8
0-0
  6
CONTINUOUS
 62
    7
 10
55690.565
 20
102830.32
 40
25.000001
 50
334.63627
 51
20.134353
  0
ARC
  8
0-0
  6
CONTINUOUS
 62
    7
 10
55635.545
 20
102714.24
 40
25.000001
 50
270
 51
334.63627
  0
ARC
  8
0-0
  6
CONTINUOUS
 62
    7
 10
55488.313
 20
102714.24
 40
25.000001
 50
180
 51
270
  0
ARC
  8
0-0
  6
CONTINUOUS
 62
    7
 10
55488.313
 20
102935.93
 40
25.000001
 50
90
 51
180
  0
CIRCLE
  8
0-0
  6
CONTINUOUS
 62
    7
 10
50420.266
 20
103362.82
 40
32.999999
  0
ARC
  8
0-0
  6
CONTINUOUS
 62
    7
 10
50420.266
 20
103362.82
 40
66.945996
 50
320.0268
 51
155.61434
  0
CIRCLE
  8
0-0
  6
CONTINUOUS
 62
    7
 10
50880.014
 20
103297.09
 40
32.999999
  0
ARC
  8
0-0
  6
CONTINUOUS
 62
    7
 10
50880.014
 20
103297.09
 40
66.945996
 50
358.54046
 51
175.08895
  0
ARC
  8
0-0
  6
CONTINUOUS
 62
    7
 10
50689.149
 20
103297.09
 40
32.999999
 50
180
 51
360
  0
CIRCLE
  8
0-0
  6
CONTINUOUS
 62
    7
 10
51354.509
 20
102008.24
 40
52.384994
  0
ARC
  8
0-0
  6
CONTINUOUS
 62
    7
 10
51623.318
 20
102827.83
 40
29.999999
 50
270
 51
47.323852
  0
ARC
  8
0-0
  6
CONTINUOUS
 62
    7
 10
52131.777
 20
102727.82
 40
29.999999
 50
270
 51
47.323852
  0
ARC
  8
0-0
  6
CONTINUOUS
 62
    7
 10
51453.074
 20
103539.25
 40
164.33398
 50
66.170166
 51
113.82984
  0
CIRCLE
  8
0-0
  6
CONTINUOUS
 62
    7
 10
51479.16
 20
103482.86
 40
166.31796
  0
CIRCLE
  8
0-0
  6
CONTINUOUS
 62
    7
 10
51479.16
 20
103482.86
 40
145.11196
  0
CIRCLE
  8
0-0
  6
CONTINUOUS
 62
    7
 10
51479.16
 20
103482.86
 40
77.924987
  0
ARC
  8
0-0
  6
CONTINUOUS
 62
    7
 10
54124.4
 20
103737.82
 40
50.000003
 50
90
 51
180
  0
ARC
  8
0-0
  6
CONTINUOUS
 62
    7
 10
52400.769
 20
102877.82
 40
299.99999
 50
47.323852
 51
90
  0
ARC
  8
0-0
  6
CONTINUOUS
 62
    7
 10
53151.011
 20
103492.18
 40
41.576992
 50
104.02848
 51
147.22776
  0
CIRCLE
  8
0-0
  6
CONTINUOUS
 62
    7
 10
53480.854
 20
103559.1
 40
20.155997
  0
CIRCLE
  8
0-0
  6
CONTINUOUS
 62
    7
 10
53151.011
 20
103492.18
 40
20.155997
  0
ARC
  8
0-0
  6
CONTINUOUS
 62
    7
 10
53465.819
 20
103536.38
 40
74.999997
 50
360
 51
104.02848
  0
ARC
  8
0-0
  6
CONTINUOUS
 62
    7
 10
54569.792
 20
103545.44
 40
50.000003
 50
360
 51
90
  0
ARC
  8
0-0
  6
CONTINUOUS
 62
    7
 10
54278.293
 20
103545.44
 40
50.000003
 50
90
 51
180
  0
ARC
  8
0-0
  6
CONTINUOUS
 62
    7
 10
54278.293
 20
103418.15
 40
50.000003
 50
180
 51
270
  0
ARC
  8
0-0
  6
CONTINUOUS
 62
    7
 10
54569.792
 20
103418.15
 40
50.000003
 50
270
 51
360
  0
ARC
  8
0-0
  6
CONTINUOUS
 62
    7
 10
54278.293
 20
103545.44
 40
25.000001
 50
90
 51
180
  0
ARC
  8
0-0
  6
CONTINUOUS
 62
    7
 10
54278.293
 20
103418.15
 40
25.000001
 50
180
 51
270
  0
ARC
  8
0-0
  6
CONTINUOUS
 62
    7
 10
54569.792
 20
103545.44
 40
25.000001
 50
360
 51
90
  0
ARC
  8
0-0
  6
CONTINUOUS
 62
    7
 10
54569.792
 20
103418.15
 40
25.000001
 50
270
 51
360
  0
CIRCLE
  8
0-0
  6
CONTINUOUS
 62
    7
 10
51130.274
 20
105897.82
 40
35.695993
  0
ARC
  8
0-0
  6
CONTINUOUS
 62
    7
 10
51130.274
 20
105897.82
 40
209.46097
 50
96.839736
 51
228.44038
  0
ARC
  8
0-0
  6
CONTINUOUS
 62
    7
 10
51130.274
 20
105897.82
 40
48.189
 50
305.13981
 51
20.140319
  0
ARC
  8
0-0
  6
CONTINUOUS
 62
    7
 10
51130.274
 20
105897.82
 40
179.99999
 50
230.66809
 51
94.61203
  0
CIRCLE
  8
0-0
  6
DASHED1
 62
    7
 10
51130.274
 20
105897.82
 40
156.32599
  0
CIRCLE
  8
0-0
  6
CONTINUOUS
 62
    7
 10
51130.274
 20
105173.84
 40
17.761996
  0
CIRCLE
  8
0-0
  6
CONTINUOUS
 62
    7
 10
51130.274
 20
104660.21
 40
17.761996
  0
CIRCLE
  8
0-0
  6
CONTINUOUS
 62
    7
 10
51130.274
 20
104517.24
 40
17.761996
  0
CIRCLE
  8
0-0
  6
CONTINUOUS
 62
    7
 10
54309.401
 20
101647.82
 40
23.659216
  0
CIRCLE
  8
0-0
  6
CONTINUOUS
 62
    7
 10
58730.873
 20
102578.76
 40
100
  0
ARC
  8
0-0
  6
CONTINUOUS
 62
    7
 10
60668.347
 20
104132.34
 40
25.000001
 50
309.50817
 51
79.007263
  0
ARC
  8
0-0
  6
CONTINUOUS
 62
    7
 10
60284.454
 20
104516.23
 40
25.000001
 50
10.990966
 51
140.49005
  0
ARC
  8
0-0
  6
CONTINUOUS
 62
    7
 10
60410.866
 20
104258.75
 40
50.000003
 50
190.99227
 51
259.00857
  0
CIRCLE
  8
0-0
  6
CONTINUOUS
 62
    7
 10
58729.676
 20
102577.55
 40
123.39298
  0
CIRCLE
  8
0-0
  6
CONTINUOUS
 62
    7
 10
63468.489
 20
106467.85
 40
50.000003
  0
CIRCLE
  8
0-0
  6
CONTINUOUS
 62
    7
 10
62619.954
 20
107316.37
 40
50.000003
  0
CIRCLE
  8
0-0
  6
CONTINUOUS
 62
    7
 10
63468.489
 20
106467.85
 40
50.000003
  0
CIRCLE
  8
0-0
  6
CONTINUOUS
 62
    7
 10
62619.954
 20
107316.37
 40
50.000003
  0
CIRCLE
  8
0-0
  6
CONTINUOUS
 62
    7
 10
62619.954
 20
107316.37
 40
50.000003
  0
CIRCLE
  8
0-0
  6
CONTINUOUS
 62
    7
 10
64741.28
 20
109437.69
 40
50.000003
  0
CIRCLE
  8
0-0
  6
CONTINUOUS
 62
    7
 10
64741.28
 20
109437.69
 40
50.000003
  0
CIRCLE
  8
0-0
  6
CONTINUOUS
 62
    7
 10
63468.489
 20
106467.85
 40
50.000003
  0
CIRCLE
  8
0-0
  6
CONTINUOUS
 62
    7
 10
62619.954
 20
107316.37
 40
50.000003
  0
CIRCLE
  8
0-0
  6
CONTINUOUS
 62
    7
 10
63468.489
 20
106467.85
 40
50.000003
  0
CIRCLE
  8
0-0
  6
CONTINUOUS
 62
    7
 10
62619.954
 20
107316.37
 40
50.000003
  0
CIRCLE
  8
0-0
  6
CONTINUOUS
 62
    7
 10
62619.954
 20
107316.37
 40
50.000003
  0
CIRCLE
  8
0-0
  6
CONTINUOUS
 62
    7
 10
65589.811
 20
108589.18
 40
50.000003
  0
CIRCLE
  8
0-0
  6
CONTINUOUS
 62
    7
 10
64741.28
 20
109437.69
 40
50.000003
  0
CIRCLE
  8
0-0
  6
CONTINUOUS
 62
    7
 10
64741.28
 20
109437.69
 40
50.000003
  0
CIRCLE
  8
0-0
  6
CONTINUOUS
 62
    7
 10
65589.811
 20
108589.18
 40
50.000003
  0
CIRCLE
  8
0-0
  6
CONTINUOUS
 62
    7
 10
65589.811
 20
108589.18
 40
50.000003
  0
CIRCLE
  8
0-0
  6
CONTINUOUS
 62
    7
 10
64741.28
 20
109437.69
 40
50.000003
  0
CIRCLE
  8
0-0
  6
CONTINUOUS
 62
    7
 10
64741.28
 20
109437.69
 40
50.000003
  0
CIRCLE
  8
0-0
  6
CONTINUOUS
 62
    7
 10
69832.443
 20
112831.83
 40
50.000003
  0
CIRCLE
  8
0-0
  6
CONTINUOUS
 62
    7
 10
68983.908
 20
113680.35
 40
50.000003
  0
CIRCLE
  8
0-0
  6
CONTINUOUS
 62
    7
 10
68983.908
 20
113680.35
 40
50.000003
  0
CIRCLE
  8
0-0
  6
CONTINUOUS
 62
    7
 10
65589.811
 20
108589.18
 40
50.000003
  0
CIRCLE
  8
0-0
  6
CONTINUOUS
 62
    7
 10
64741.28
 20
109437.69
 40
50.000003
  0
CIRCLE
  8
0-0
  6
CONTINUOUS
 62
    7
 10
64741.28
 20
109437.69
 40
50.000003
  0
CIRCLE
  8
0-0
  6
CONTINUOUS
 62
    7
 10
69832.443
 20
112831.83
 40
50.000003
  0
CIRCLE
  8
0-0
  6
CONTINUOUS
 62
    7
 10
68983.908
 20
113680.35
 40
50.000003
  0
CIRCLE
  8
0-0
  6
CONTINUOUS
 62
    7
 10
68983.908
 20
113680.35
 40
50.000003
  0
CIRCLE
  8
0-0
  6
CONTINUOUS
 62
    7
 10
69832.438
 20
112831.83
 40
50.000003
  0
CIRCLE
  8
0-0
  6
CONTINUOUS
 62
    7
 10
68983.903
 20
113680.35
 40
50.000003
  0
CIRCLE
  8
0-0
  6
CONTINUOUS
 62
    7
 10
68983.903
 20
113680.35
 40
50.000003
  0
CIRCLE
  8
0-0
  6
CONTINUOUS
 62
    7
 10
74075.066
 20
117074.47
 40
50.000003
  0
CIRCLE
  8
0-0
  6
CONTINUOUS
 62
    7
 10
73226.536
 20
117923
 40
50.000003
  0
CIRCLE
  8
0-0
  6
CONTINUOUS
 62
    7
 10
73226.536
 20
117923
 40
50.000003
  0
CIRCLE
  8
0-0
  6
CONTINUOUS
 62
    7
 10
69832.438
 20
112831.83
 40
50.000003
  0
CIRCLE
  8
0-0
  6
CONTINUOUS
 62
    7
 10
68983.903
 20
113680.35
 40
50.000003
  0
CIRCLE
  8
0-0
  6
CONTINUOUS
 62
    7
 10
68983.903
 20
113680.35
 40
50.000003
  0
CIRCLE
  8
0-0
  6
CONTINUOUS
 62
    7
 10
74075.066
 20
117074.47
 40
50.000003
  0
CIRCLE
  8
0-0
  6
CONTINUOUS
 62
    7
 10
73226.536
 20
117923
 40
50.000003
  0
CIRCLE
  8
0-0
  6
CONTINUOUS
 62
    7
 10
73226.536
 20
117923
 40
50.000003
  0
CIRCLE
  8
0-0
  6
CONTINUOUS
 62
    7
 10
74075.066
 20
117074.47
 40
50.000003
  0
CIRCLE
  8
0-0
  6
CONTINUOUS
 62
    7
 10
73226.536
 20
117923
 40
50.000003
  0
CIRCLE
  8
0-0
  6
CONTINUOUS
 62
    7
 10
73226.536
 20
117923
 40
50.000003
  0
CIRCLE
  8
0-0
  6
CONTINUOUS
 62
    7
 10
76926.86
 20
120774.8
 40
71.351985
  0
CIRCLE
  8
0-0
  6
CONTINUOUS
 62
    7
 10
74075.066
 20
117074.47
 40
50.000003
  0
ARC
  8
0-0
  6
CONTINUOUS
 62
    7
 10
76654.854
 20
120502.79
 40
50.000003
 50
9.3450927
 51
80.655761
  0
ARC
  8
0-0
  6
CONTINUOUS
 62
    7
 10
76416.866
 20
120617.97
 40
25.000001
 50
130.44798
 51
260.65444
  0
ARC
  8
0-0
  6
CONTINUOUS
 62
    7
 10
76770.022
 20
120264.8
 40
25.000001
 50
189.34378
 51
319.55024
  0
CIRCLE
  8
0-0
  6
CONTINUOUS
 62
    7
 10
73226.536
 20
117923
 40
50.000003
  0
CIRCLE
  8
0-0
  6
CONTINUOUS
 62
    7
 10
73226.536
 20
117923
 40
50.000003
  0
CIRCLE
  8
0-0
  6
CONTINUOUS
 62
    7
 10
77743.851
 20
120935.33
 40
239.99999
  0
CIRCLE
  8
0-0
  6
CONTINUOUS
 62
    7
 10
77743.851
 20
120935.33
 40
199.998
  0
CIRCLE
  8
0-0
  6
CONTINUOUS
 62
    7
 10
77743.851
 20
120935.33
 40
45.230997
  0
ARC
  8
0-0
  6
CONTINUOUS
 62
    7
 10
77650.834
 20
120833.59
 40
25.000001
 50
271.61886
 51
333.13885
  0
ARC
  8
0-0
  6
CONTINUOUS
 62
    7
 10
78073.238
 20
121667.65
 40
25.000001
 50
333.13885
 51
44.999114
  0
ARC
  8
0-0
  6
CONTINUOUS
 62
    7
 10
77584.347
 20
121071.33
 40
25.000001
 50
70.726348
 51
208.36816
  0
ARC
  8
0-0
  6
CONTINUOUS
 62
    7
 10
77674.954
 20
120903.53
 40
25.000001
 50
208.36816
 51
244.66838
  0
ARC
  8
0-0
  6
CONTINUOUS
 62
    7
 10
77764.344
 20
121008.38
 40
25.000001
 50
34.426132
 51
70.726348
  0
CIRCLE
  8
0-0
  6
CONTINUOUS
 62
    7
 10
77554.347
 20
121755.84
 40
54.517998
  0
CIRCLE
  8
0-0
  6
CONTINUOUS
 62
    7
 10
77554.347
 20
121755.84
 40
77.784995
  0
CIRCLE
  8
0-0
  6
CONTINUOUS
 62
    7
 10
77554.347
 20
121755.84
 40
264.99999
  0
CIRCLE
  8
0-0
  6
CONTINUOUS
 62
    7
 10
77554.347
 20
121755.84
 40
222.68297
  0
ARC
  8
0-0
  6
CONTINUOUS
 62
    7
 10
77802.45
 20
121938.42
 40
25.000001
 50
44.999114
 51
111.31208
  0
ARC
  8
0-0
  6
CONTINUOUS
 62
    7
 10
77569.837
 20
121713.5
 40
149.99999
 50
111.31274
 51
144.76219
  0
CIRCLE
  8
0-0
  6
CONTINUOUS
 62
    7
 10
77227.816
 20
121075.76
 40
88.565986
  0
CIRCLE
  8
0-0
  6
CONTINUOUS
 62
    7
 10
77505.611
 20
121353.55
 40
71.351985
  0
CIRCLE
  8
0-0
  6
CONTINUOUS
 62
    7
 10
77898.046
 20
121745.99
 40
71.351985
  0
ARC
  8
0-0
  6
CONTINUOUS
 62
    7
 10
77142.875
 20
121449.34
 40
50.000003
 50
94.008224
 51
207.05433
  0
CIRCLE
  8
0-0
  6
CONTINUOUS
 62
    7
 10
77135.763
 20
121452.23
 40
22.306003
  0
ARC
  8
0-0
  6
CONTINUOUS
 62
    7
 10
77913.659
 20
120790.54
 40
25.000001
 50
244.66838
 51
34.426132
  0
ENDSEC
  0
EOF
